Song name
# A B C D E F G H I J K L M N O P Q R S T U V W X Y Z

New Order - Guilty Partner tab

(3:03)
*probably finger picked*

--7--5-----7--------7--5-------------------|
--5-----8-----------5-----8--7----5--5-----|
--5-----------------5----------------------|
-------------------------------------------|
-------------------------------------------|
-------------------------------------------|


-------------------------------------------|
--5--8--------7--7--8--7--5----------------|
-------------------------------------------|
-------------------------------------------|
-------------------------------------------|
-------------------------------------------|


-------------------------------------------|
----------------7--5--5--------------------|
--5--5--------5----------------------------|
-------------------------------------------|
-------------------------------------------|
-------------------------------------------|


-------------------------------------------|
-----------------7--8--7--5----------------|
--5--5--------5----------------------------|
-------------------------------------------|
-------------------------------------------|
-------------------------------------------|
Tap to rate this tab
# A B C D E F G H I J K L M N O P Q R S T U V W X Y Z