Song name
# A B C D E F G H I J K L M N O P Q R S T U V W X Y Z

New Politics - Yeah Yeah Yeah tab

Great song reminds me of song 2 by blur...

Key:
^ = Upstroke
t = Tremelo (Strum really fast)


Main Riff: Clean

|--x-x-----------------------------------|
|--x-x-----------------------------------|
|--x-x-------------------------------6-6-|
|--x-x-6-6-x-6s-10-10-x-10-s-3-3-x-3-6-6-|
|--x-x-6-6-x-6s-10-10-x-10-s-3-3-x-3-4-4-|
|--x-x-4-4-x-4s-8--8--x-8--s-1-1-x-1-----|

Main Riff: Distorted

|--x-x-----------------------------------|
|--x-x-----------------------------------|
|--x-x-------------------------------6-6-|
|--x-x-6-6-x-6s-10-10-x-10-s-3-3-x-3-6-6-|
|--x-x-6-6-x-6s-10-10-x-10-s-3-3-x-3-4-4-|
|--x-x-4-4-x-4s-8--8--x-8--s-1-1-x-1-----|

Fill: Clean
                        ^   ^
|-4-4-4-4-4-4-6-6-----|-x-x-x-x-|
|--4-4-4-4-4-4-4-4----|-x-x-x-x-|
|---------------------|-x-x-x-x-|  <--- Play last time
|--------(x4)---------|-x-x-x-x-|       right before chorus
|---------------------|-x-x-x-x-|
|---------------------|-x-x-x-x-|

End "Solo": Slightly Overdriven?

|-8t8888888888888888888-9t99999999999-8t888888888888888888-9t99999999999-10--|t
|----------------------------------------------------------------------------|
|----------------------------------------------------------------------------|
|----------------------------------------------------------------------------|
|----------------------------------------------------------------------------|
|----------------------------------------------------------------------------|


                              "Yeah Yeah Yeah"
                                New Politics

                           <---californiacane--->

                            Get Back Here Johnny!
                                    RHCP
Tap to rate this tab
 
# A B C D E F G H I J K L M N O P Q R S T U V W X Y Z