Song name
# A B C D E F G H I J K L M N O P Q R S T U V W X Y Z

New Politics - Dignity tab

-------------------------------------------------------------------------------
			     "Dignity" - New Politics
-------------------------------------------------------------------------------
Tabbed by: Quimbinator
Email: Quimbinator@hotmail.com
Tuning: Standard (Eadgbe)

I love this band enough that I decided to tab it out, it took so 
many replays of the song to figure out, i hope you like it!


This is the chord progression throughout most of the song.
Listen for the strumming patterns.

E|---------------------------------------------------------------|
B|---------------------------------------------------------------|
G|--------------------6------------------------------------------|
D|--2---------6-------6--------7---------------------------------|
A|--2---------6-------4--------7---------------------------------|
E|--0---------4----------------5---------------------------------|

First 'solo'

E|-----------------------------------------------------------------|
B|--------9------8-----7------6--6----6--5-------------------------|
G|----6------6------6-----6---------3------------------------------|
D|-----------------------------------------------------------------|
A|-----------------------------------------------------------------|
E|-----------------------------------------------------------------|

End on:

E|-------------|
B|-------------|
G|-------------|
D|----2--------|
A|----2--------|
E|----0--------|

For the verse, have a clean setting on. Then when the chorus begins, 
crank up the distortion. Sorry if the last part of the solo is off.
Tap to rate this tab
 
# A B C D E F G H I J K L M N O P Q R S T U V W X Y Z