Song name
# A B C D E F G H I J K L M N O P Q R S T U V W X Y Z

New Politics - Nuclear War tab

                        New Politics - Nuclear War

INTRO
e|----------------------------------------------------------------|
B|----------------------------------------------------------------|
G|----------------------------------------------------------------|
D|--------------99-10---------------------------------------------|
A|-77-777-777-7---------------------------------------------------|
E|----------------------------------------------------------------|

GUITAR I
e|----------------------------------------------------------------|
B|----------------------------------------------------------------|
G|-99-999-9-1212-121212-12-77-777-7-----------9~------------------|  x2
D|-99-999-9-1212-121212-12-77-777-7-99-999-9--9~------------------|
A|-77-777-7-1010-101010-10-55-555-5-99-999-9--7~------------------|
E|----------------------------------77-777-7----------------------|

GUITAR II
e|----------------------------------------------------------------|
B|----------------------------------------------------------------|
G|--------------------------------------------9~------------------|  x2
D|--------------99-10---------------1010-9----9~------------------|
A|-77-777-777-7-------55-555-5----------------7~------------------|
D|-----------------------------77-7-------------------------------|

VERSE
e|----------------------------------------------------------------|
B|----------------------------------------------------------------|
G|----------------------------------------------------------------|
D|----------------------------------------------------------------|
A|-7x24-12x22--(listen to song for strumming pattern)-------------|
E|----------------------------------------------------------------|

e|----------------------------------------------------------------|
B|----------------------------------------------------------------|
G|----------------------------------------------------------------|
D|----9----99----9----99-----7----77------------------------------|
A|-77---77----77---77-----55---55---------------------------------|
E|----------------------------------------------------------------|

PRE-CHORUS
e|----------------------------------------------------------------|
B|----------------------------------------------------------------|
G|----------------------------------------------------------------|  x4
D|----------------------------------------------------------------|
A|-77-99-1010-12--------------------------------------------------|
E|----------------------------------------------------------------|

CHORUS

GUITAR I
e|----------------------------------------------------------------|
B|----------------------------------------------------------------|
G|-99-999-9-1212-121212-12-77-777-7-------------------------------|  x2
D|-99-999-9-1212-121212-12-77-777-7-99-999-9----------------------|
A|-77-777-7-1010-101010-10-55-555-5-99-999-9----------------------|
E|----------------------------------77-777-7----------------------|

GUITAR II
e|----------------------------------------------------------------|
B|----------------------------------------------------------------|
G|----------------------------------------------------------------|  x2
D|--------------99-10---------------1010-9------------------------|
A|-77-777-777-7-------55-555-5------------------------------------|
D|-----------------------------77-7-------------------------------|

VERSE
e|----------------------------------------------------------------|
B|----------------------------------------------------------------|
G|----------------------------------------------------------------| x2
D|----------------------------------------------------------------|
A|-7x24-12x22--(listen to song for strumming pattern)-------------|
E|----------------------------------------------------------------|

PRE-CHORUS
e|----------------------------------------------------------------|
B|----------------------------------------------------------------|
G|----------------------------------------------------------------|  x4
D|----------------------------------------------------------------|
A|-77-99-1010-12--------------------------------------------------|
E|----------------------------------------------------------------|

CHORUS

GUITAR I
e|----------------------------------------------------------------|
B|----------------------------------------------------------------|
G|-99-999-9-1212-121212-12-77-777-7-------------------------------|  x2
D|-99-999-9-1212-121212-12-77-777-7-99-999-9----------------------|
A|-77-777-7-1010-101010-10-55-555-5-99-999-9----------------------|
E|----------------------------------77-777-7----------------------|

GUITAR II
e|----------------------------------------------------------------|
B|----------------------------------------------------------------|
G|----------------------------------------------------------------|  x2
D|--------------99-10---------------1010-9------------------------|
A|-77-777-777-7-------55-555-5------------------------------------|
D|-----------------------------77-7-------------------------------|

That's all i could figure out. Hope you enjoy.

Made by Sebastian Van Hyfte
Tap to rate this tab
 
# A B C D E F G H I J K L M N O P Q R S T U V W X Y Z