Song name
# A B C D E F G H I J K L M N O P Q R S T U V W X Y Z

New Politics - Dignity tab

Hey guys, this is a relatively easy song to play.
It took me about 5 minutes to tab the song (besides the solo)
Just listen to the begining of the song if you need help with the pattern.
The verses should be played pretty clean, while the chorus has distortion or overdrive.
During the verses note that that first two notes before each power chord should be palm muted.

-----------------------------------|
-----------------------------------|
-------------------6---------------|       x4
-----2------6------6------7--------|
-----2------6--4-4-4------7--------|
-0-0-0--4-4-4---------5-5-5--------|


You walk the streets,
Never feel no guilt,
You make your money selling guns on the playground.

I'm so ashamed,
Cause we're all the same,
Killing in the name money is the game now.

And you're buying bombs,
And we pay the price,
Eat your lies and we feed it to the children.

Is this what you want?
Is this what you need?
You're gonna kill us all to bring peace.


-------xx-------xx-------xx-------xx--------|
-------xx-------xx-------xx-------xx--------|
-------xx-------xx-6-6-6-xx-------xx--------|       x4
-2-2-2-xx-6-6-6-xx-6-6-6-xx-7-7-7-xx--------|
-2-2-2-xx-6-6-6-xx-4-4-4-xx-7-7-7-xx--------|
-0-0-0-xx-4-4-4-xx-------xx-5-5-5-xx--------|


My blood,
My soul,
Is my enemy.
My love,
My life,
Is poison to me.
I know it's not how it's supposed to be,
Got no choice,
No voice,
I have no dignity.


----------------------------------------5-|
----h9------8\-----7\------6/6--------5---|
-6------6------6-----6---------3-6--------|
------------------------------------------|
------------------------------------------|
------------------------------------------|


-----------------------------------|
-----------------------------------|
-------------------6---------------|       x4
-----2------6------6------7--------|
-----2------6--4-4-4------7--------|
-0-0-0--4-4-4---------5-5-5--------|


You manipulate,
With your bag of tricks,
You're playing God with the world on my shoulder.

Can't regulate,
Cause the worlds at stake,
We're so lost that we all feel it's over.

But I'm the one to blame,
For this burning pain,
It's eating up the world,

And we gonna live it in shame,
It's hard to maintain,
when it's so insane,
It's so, so insane.

(Guitar stops here)

So kids don't listen to your parents,
The parents can't teach us,
All they ever left was a world in a mess.


-------xx-------xx-------xx-------xx--------|
-------xx-------xx-------xx-------xx--------|
-------xx-------xx-6-6-6-xx-------xx--------|       x6
-2-2-2-xx-6-6-6-xx-6-6-6-xx-7-7-7-xx--------|
-2-2-2-xx-6-6-6-xx-4-4-4-xx-7-7-7-xx--------|
-0-0-0-xx-4-4-4-xx-------xx-5-5-5-xx--------|


My blood,
My soul,
Is my enemy.
My love,
My life,
Is poison to me.
I know it's not how it's supposed to be,
Got no choice,
No voice,
I have no dignity.


----------------------------------|
----------------------------------|
----------------------------------|       x4
----------------------------------|
---------------4-4--4-------------|
-0-0--0-4-4--4-------5-5-5--------|


-------xx-------xx-------xx-------xx--------|
-------xx-------xx-------xx-------xx--------|
-------xx-------xx-6-6-6-xx-------xx--------|       x8
-2-2-2-xx-6-6-6-xx-6-6-6-xx-7-7-7-xx--------|
-2-2-2-xx-6-6-6-xx-4-4-4-xx-7-7-7-xx--------|
-0-0-0-xx-4-4-4-xx-------xx-5-5-5-xx--------|


My blood,
My soul,
Is my enemy.
My love,
My life,
Is poison to me.
I know it's not how it's supposed to be,
Got no choice,
No voice,
I have no dignity.
(repeat)
Tap to rate this tab
 
# A B C D E F G H I J K L M N O P Q R S T U V W X Y Z