Song name
# A B C D E F G H I J K L M N O P Q R S T U V W X Y Z

New Politics - Dignity tab

Dignity-New Politics

standard tuning

Main rift. im not to sure on the last but i think the bass not is hit 3 times.

E|--------------------------------------------------------------|
B|-------0---------4----------5--------4------------------------|
G|-------1---------5----------6--------5------------------------|
D|-------2---------6----------6--------7------------------------|
A|---2-------------------4-4-----------7------------------------|
E|-0-0--------4-4-----------------5-55--------------------------|



Chorus
E|------------------------------------------------------|
B|------------------------------------------------------|
G|-----------6------------------------------------------|
D|-2----6----6-x4-7-------------------------------------|
A|-2-x4-6-x4-4----7-x4----------------------------------|
E|-0----4---------5-------------------------------------|


if you have anything to say email me at godzillarules88@comcast.net
Tap to rate this tab
 
# A B C D E F G H I J K L M N O P Q R S T U V W X Y Z