Song name
# A B C D E F G H I J K L M N O P Q R S T U V W X Y Z

New Politics - Harlem tab

This is my first tab (besides the "all the small things" tab that just disappeared... 
I believe this is right, I did it by ear. If it's wrong at least 
it will give you a start due to no one else submitting one.


Intro:
1x
e|------------------------------------------------------------------------|
B|------------------------------------------------------------------------|
G|------------------------------------------------------------------------|
D|-----4-4------4-4------4-4------4-4------4-4------4-4------4-4------4-4-|
A|------------------------------------------------------------------------|
E|-2-2------2-2------2-2------2-2------2-2------2-2------2-2------2-2-----|


Verse: This is played on the bass but you can palm-muted
2x
e|------------------------------------------------------------------------|
B|------------------------------------------------------------------------|
G|------------------------------------------------------------------------|
D|-----4-4------4-4------9-9------9-9------4-4------4-4------4-4------4-4-|
A|------------------------------------------------------------------------|
E|-2-2------2-2------7-7------7-7------2-2------2-2------2-2------2-2-----|


Pre-Chorus:
1x
e|------------------------------------------------------------------------|
B|------------------------------------------------------------------------|
G|-----------4-4-4-4-4---------------4-4-4-6-6----------------------------|
D|-4---4-----4-4-4-4-4-----4---4-----4-4-4-6-6----------------------------|
A|-4---4-----2-2-2-2-2-----4---4-----2-2-2-4-4----------------------------|
E|-2---2-------------------2---2------------------------------------------|


Chorus:
2x
e|------------------------------------------------------------------------|
B|------------------------------------------------------------------------|
G|-----------------3-3-3-3-3-3-3-3-6-6-6-6-6-6-6-6-6-6-6-6-6-6-6-6--------|
D|-4-4-4-4-4-4-4-4-3-3-3-3-3-3-3-3-6-6-6-6-6-6-6-6-6-6-6-6-6-6-6-6--------|
A|-4-4-4-4-4-4-4-4-1-1-1-1-1-1-1-1-4-4-4-4-4-4-4-4-4-4-4-4-4-4-4-4--------|
E|-2-2-2-2-2-2-2-2--------------------------------------------------------|


Re-intro:
1x
e|------------------------------------------------------------------------|
B|------------------------------------------------------------------------|
G|------------------------------------------------------------------------|
D|-----4-4------4-4------4-4------4-4-------------------------------------|
A|------------------------------------------------------------------------|
E|-2-2------2-2------2-2------2-2-----------------------------------------|


Verse: Palm-muted
2x
e|------------------------------------------------------------------------|
B|------------------------------------------------------------------------|
G|------------------------------------------------------------------------|
D|-----4-4------4-4------9-9------9-9------4-4------4-4------4-4------4-4-|
A|------------------------------------------------------------------------|
E|-2-2------2-2------7-7------7-7------2-2------2-2------2-2------2-2-----|


Pre-Chorus:
2x
e|------------------------------------------------------------------------|
B|------------------------------------------------------------------------|
G|-----------4-4-4-4-4---------------4-4-4-6-6----------------------------|
D|-4---4-----4-4-4-4-4-----4---4-----4-4-4-6-6----------------------------|
A|-4---4-----2-2-2-2-2-----4---4-----2-2-2-4-4----------------------------|
E|-2---2-------------------2---2------------------------------------------|


Chorus:
4x
e|------------------------------------------------------------------------|
B|------------------------------------------------------------------------|
G|-----------------3-3-3-3-3-3-3-3-6-6-6-6-6-6-6-6-6-6-6-6-6-6-6-6--------|
D|-4-4-4-4-4-4-4-4-3-3-3-3-3-3-3-3-6-6-6-6-6-6-6-6-6-6-6-6-6-6-6-6--------|
A|-4-4-4-4-4-4-4-4-1-1-1-1-1-1-1-1-4-4-4-4-4-4-4-4-4-4-4-4-4-4-4-4--------|
E|-2-2-2-2-2-2-2-2--------------------------------------------------------|


Bridge: Palm-muted
2x
e|------------------------------------------------------------------------|
B|------------------------------------------------------------------------|
G|------------------------------------------------------------------------|
D|-----------------4-4-4-4-4-4-4-4----------------------------------------|
A|-4-4-4-4-4-4-4-4-2-2-2-2-2-2-2-2-4-4-4-4-4-4-4-4-4-4-4-4-4-4-4-4--------|
E|-2-2-2-2-2-2-2-2-----------------2-2-2-2-2-2-2-2-2-2-2-2-2-2-2-2--------|


Pre-Chorus:
1x
e|------------------------------------------------------------------------|
B|------------------------------------------------------------------------|
G|-----------4-4-4-4-4---------------4-4-4-6-6----------------------------|
D|-4---4-----4-4-4-4-4-----4---4-----4-4-4-6-6----------------------------|
A|-4---4-----2-2-2-2-2-----4---4-----2-2-2-4-4----------------------------|
E|-2---2-------------------2---2------------------------------------------|


Chorus:
4x
e|------------------------------------------------------------------------|
B|------------------------------------------------------------------------|
G|-----------------3-3-3-3-3-3-3-3-6-6-6-6-6-6-6-6-6-6-6-6-6-6-6-6--------|
D|-4-4-4-4-4-4-4-4-3-3-3-3-3-3-3-3-6-6-6-6-6-6-6-6-6-6-6-6-6-6-6-6--------|
A|-4-4-4-4-4-4-4-4-1-1-1-1-1-1-1-1-4-4-4-4-4-4-4-4-4-4-4-4-4-4-4-4--------|
E|-2-2-2-2-2-2-2-2--------------------------------------------------------|


That's it, there might be something wrong but, you or your teacher could
 figure it out for you. If I get bad reviews, I will edit. 
You could help me out in the comments
Tap to rate this tab
 
# A B C D E F G H I J K L M N O P Q R S T U V W X Y Z