Song name
# A B C D E F G H I J K L M N O P Q R S T U V W X Y Z

New Politics - Harlem tab

 New Politics- Harlem
 "A Bad Girl In Harlem" the entire album is great,anyways here's the absolute CORRECT 
way to play "Harlem" no half steps no fancy tunings, just standard. I know the guitarists 
style in this band, and he never changes it, because he's actually a piano player.

INTRO
e-----------------|----------------|
b-----------------|----------------|
g-----------------|----------------|
d------4-4-----4--|------9-9----9--|
a-----------------|----------------|
e--2-2-----2-2----|--7-7-----77----|

TRANSITION (FIGURE OUT STUMMING PATTERN)
e---------------------------------|
b---------------------------------|
g-------4----6--------------------|
d--4----4----6--------------------|
a--4----2----4--------------------|
e--2------------------------------|

MAIN RIFF
e---------------------------------|
b---------------------------------|
g-------3----6--------------------|
d--4----3----6--------------------|
a--4----1----4--------------------|
e--2------------------------------|
Tap to rate this tab
# A B C D E F G H I J K L M N O P Q R S T U V W X Y Z