Song name
# A B C D E F G H I J K L M N O P Q R S T U V W X Y Z

New Pornographers - All The Old Showstoppers tab

-------------------------------------------------------------------------------
			    All The Old Showstoppers - The New Pornographers
-------------------------------------------------------------------------------
Tabbed by: notimel3ft
Email: notimel3ft@gmail.com

Tuning: Standard

Little Interlude after verses

e|---------------------------------------------------------------------------|
B|---------------------------------------------------------------------------|
G|---------------------------------------------------------------------------|
D|----------------4------4--2---1--4-----------2-1---------------------------|
A|-2---2--4-----4-----4---------------0-----0--------------------------------|
E|---2--------4---------------------------2---------4r-----------------------|

e|---------------------------------------------------------------------------|
B|---------------------------------------------------------------------------|
G|---------------------------------------------------------------------------|
D|----------------4------4--2---1--4-----------2-1---------------------------|
A|-2---2--4-----4-----4---------------0-----0--------------------------------|
E|---2--------4---------------------------2---------4r-----------------------|




************************************

| /   slide up
| \   slide down
| h   hammer-on
| p   pull-off
| ~   vibrato
| +   harmonic
| x   Mute note
| b   Bend
| pb  Pre-bend
| br  Bend release
| pbr Pre-bend release
| brb Bend release bend

************************************
Tap to rate this tab
 
# A B C D E F G H I J K L M N O P Q R S T U V W X Y Z