Song name
# A B C D E F G H I J K L M N O P Q R S T U V W X Y Z

New Years Day - I Was Right tab

New Years Day
I Was Right
My Dear
2007 TVT Records
Submitted by: paramore_fans@yahoo.com

band members
Ashley Costello
Keith Drover
Mike Schoolden
Adam Lohrbach
Russell Dixon

To the tab voters: please vote this as APPROVE!! this is 100% correct, otherwise I'm 
to ask the mods to BAN YOU!!! I'm not kidding!!!


Key: D

Tuning: Drop D

Chords used:
D5 -   000xxx or 0577xx
B5 -   999xxx
D/F# - 454xxx
A5 -   777xxx
G5 -   555xxx
C5 -   10-10-10-x-x-x
E5 -   222xxx


Intro: D5----B5----E5--G5-A5

Guitar 2:
e|----------------------------|
B|----------------------------|
G|-7-7-7--6-6-6--9-9-9--7-7-7-|
D|-x-x-x--x-x-x--x-x-x--x-x-x-| (x3)
A|-5-5-5--4-4-4--7-7-7--5-5-5-|
D|----------------------------|


Verse 1:
  D5
I never knew that I was dealing with a graduate
       B5
with a major in defensive and a minor in excuses
     E5
It's not that hard to say you're wrong
  G5         A5       D5(hold)
admit oh, go on, go on


Bass Riff: Very Fast
G|-------------------------|
D|-------------------------|
A|-5-4-0-2-0-5-------------|
D|-------------5-4-2-4-2-0-|


    D5
You know I wouldn't want to make
you feel worse than you should
       B5
but if you were me you'd do the same
you know you would (you know you would)
     E5
it's not that hard to say you're wrong
  G5         A5       B5--A5
admit oh, go on, go on


Chorus:
D5
  It'd mean everything
D/F#             G5
just to hear you say to me
     B5              A5
that I was right and you were wrong
     G5                A5
it's not that hard, go on, go on
(Repeat)


Bass Riff: Very Fast  D5
G|-------------------------|
D|-------------------------|
A|-5-4-0-2-0-5-------------|
D|-------------5-4-2-4-2-0-|


Verse 2:
  D5
I know you know it's all your
fault and I should let this go
      B5
but I need to hear you say it love
it's principle (it's principle)
     E5
it's not that hard to say you're wrong
  G5            A5       B5--A5
admit it oh, go on, go on


(Repeat Chorus)


Post Chorus:
B5              A5
I was right and you were wrong
   C5
go on go on, (go on, go on)


Interlude: D5--

Guitar 2: Do fast picking
e|-------------------------|
B|-------------------------|
G|-------------------------|
D|-------------------------| (x4)
A|---5-4---2-0---4-5-------|
D|-0-----0-----0-----0-4-0-|


Bridge: beat switch from 3/4 to 4/4
G5              A5
  It would mean everything
B5                                D5
  (but you're so smart with those clever eyes)
     G5
so I tell you that I love you
    A5
and blow you a kiss
       B5
(but until you say you're sorry
            D5
well that's all you're gonna get)
G5         A5
Oh, that's all you're gonna get oh


Interlude: D5--

Guitar 2: Do fast picking
e|-------------------------|
B|-------------------------|
G|-------------------------|
D|-------------------------| (x2)
A|---5-4---2-0---4-5-------|
D|-0-----0-----0-----0-4-0-|

then

Silence: D5--

Guitar 2:
e|----------------------------|
B|----------------------------|
G|-7-7-7--6-6-6--9-9-9--7-7-7-|
D|-x-x-x--x-x-x--x-x-x--x-x-x-|
A|-5-5-5--4-4-4--7-7-7--5-5-5-|
D|----------------------------|

(Repeat Chorus)


Outro: D5--

Guitar 2:
e|----------------------------|
B|----------------------------|
G|-7-7-7--6-6-6--9-9-9--7-7-7-|
D|-x-x-x--x-x-x--x-x-x--x-x-x-|
A|-5-5-5--4-4-4--7-7-7--5-5-5-|
D|----------------------------|

http://www.newyearsdayrocks.com/
Tap to rate this tab
# A B C D E F G H I J K L M N O P Q R S T U V W X Y Z