Song name
# A B C D E F G H I J K L M N O P Q R S T U V W X Y Z

New York Dolls - Chatterbox tab

Intro:  C  A  E


Riff 1
e|--------------------------------------------------------|
B|--------------------------------------------------------|
G|-----7h9-----------------7------------------------------|
D|-7h9-7h9----7h9-------9-7-7--7/14~----------------------|
A|-7h9--------7h9--7----9---7-----------------------------|
E|-----------------7--------------------------------------|


G         A         E
   Said Chatterbox
G                    A        E
   I said you squalk a lot
G                A                   E
   Come on gimme some lips
G          A         E
   Yeah Chatterbox

Riff 1

G  A           E
   I call you up
G                 A        E
   Don't gimme no line
G                   A          E
   I'm coming in your home
G             A        E
   On the chatterline

Riff 1

Solo:  G  A  E

Riff 1

G       A          E
   All dressed up
G         A                  E
   I got nowehere to go
G                  A     E
   Seems like fun night
G             A      E
   On the telephone

Riff 1

G         A         E
   Said Chatterbox
G                    A         E
   I said you squalk a lot
G                 A                 E
   Come on gimme some lips
G          A         E
   Yeah Chatterbox     Come on, Come on, Come on
G         A         E
   Said Chatterbox      Come on, Come on, Come on
G          A         E
   Yeah Chatterbox
G         A         E
   Said Chatterbox

Riff 1

Solo:  G  A  E

End:

e|--------------------|
B|--------------------|
G|--------------------|
D|-----------2--------|
A|--10/12~--/2--------|
E|-----------0--------|
Tap to rate this tab
# A B C D E F G H I J K L M N O P Q R S T U V W X Y Z