Song name
# A B C D E F G H I J K L M N O P Q R S T U V W X Y Z

Newcomers Home - She Cries tab

“She Cries”
-Newcomers Home

www.newcomershome.com

This is an awesome song from a band that my bro introduced me to and I started tabbing
it for him (and me) cuz I knew he’d love it.  Unfortunately, the band members went solo
but Katie Herzig is still good!  Listen to the song for timing cuz I don’t know how to
write it out.

*=harmonics
h=hammer on
p=pull off
/=slide up

e|-------*12*---|---------------|----------------------------|
B|-------*12*---|---------------|----------------------------|
G|--------------|---------------|------------0---------------|
D|--------------|---------------|------2--4-----4--2--0------|
A|--------------|---2h3p2p0h2---|---2--------------------2---|
E|---0----------|---------------|----------------------------|

e|-----------------------------|-------------|----------------------|
B|-----------------------------|-------------|----------------------|
G|------------0--2h4p2--0--2---|-------------|---2--4--2--0---------|
D|------2--4-------------------|---0--0--0---|----------------4--2--|
A|---3-------------------------|-------------|----------------------|
E|-----------------------------|-------------|----------------------|
				        ^ middle “D” is very faint
e|----------------------|-----------------------|-------------------|
B|------------------0---|---1--3--5--7/12--12---|-------------------|
G|----------------------|-----------------------|-------------------|
D|---0------------------|-----------------------|-------------------|
A|------3--0--2--3--2---|-----------------------|---10p9p7h10p9p7---|
E|----------------------|-----------------------|-------------------|

I can’t figure out the rest but I don’t think it’s a guitar.
Thanks for usin’ my tab,
Aris (peace_out)
Tap to rate this tab
 
# A B C D E F G H I J K L M N O P Q R S T U V W X Y Z