Song name
# A B C D E F G H I J K L M N O P Q R S T U V W X Y Z

Newsboys - In Wonder tab

clean guitar
intro                
listen to recording to get rhythm.....repeat twice
e-------------------------------------------------|
b-------------------------------------------------|
g------------------------------------------------.|
d------------------------------------------------.|
a-8-888-10-101010-12-13-131313-13-131313-131313---|
e-8-888-8—-8-8-8—-8—-11-111111-10-101010-111010---|

Verse
e-------------------------------------------------|
b-------------------------------------------------|
g-------------------------------------------------|
d-------------------------------------------------|
a-8-888-10-101010-12-13-131313-13-131313-131313---|
e-8-888-8—-8-8-8—-8—-11-111111-10-101010-111010---|

    So much wonder       carved in Your coral seas.
    I consider       all Your hands have made  
					   repeat	
e-------------------------------------------------|
b-------------------------------------------------|
g------------------------------------------------.|
d------------------------------------------------.|
a-8-888-10-101010-12-13-131313-13-131313-131313---|
e-8-888-8—-8-8-8—-8—-11-111111-10-101010-111010---|

    So much wonder        shaded by ancient trees
    Every newborn’s eyes, Every new sunrise


  ..Ab ............ Bb ......................  repeat
e-------------------------------------------------|
b-------------------------------------------------|
g------------------------------------------------.|
d------------------------------------------------.|
a---6---------------8-----------------------------|
e-4---------------6-------------------------------|

 No power can tame     Your presence
 No light can match    Your radiance 



Chorus with distortion

  ..F.................C
e-------------------------------------------------|
b-------------------------------------------------|
g-10----------------------------------------------|
d-10-----------------10---------------------------|
a-8------------------10---------------------------|
e--------------------8----------------------------|

    Let  all   cre-a-tion       sing       in 
    star.   You open up my  eyes to 

 ..Ab............Bb.........................repeat
e-------------------------------------------------|
b-------------------------------------------------|
g------------------------------------------------.|
d-6---------------8------------------------------.|
a-6---------------8-------------------------------|
e-4---------------6-------------------------------|
  wonder.    Every sea, every creature, every 
  wonder.  What a vision, what a wonder You are.



(Alternate Chorus with distortion)

  ..F..............C
e------------------------------------------------|
b------------------------------------------------|
g-10-----10-10--10-9--7----9---------------------|
d-10-----10-10--10-10-10---10--------------------|
a------------------------------------------------|
e------------------------------------------------|

  Let   all cre-a-tion sing in 
  You    open   up my  eyes to 

  ..Ab...........Bb.........................repeat
e-------------------------------------------------|
b-------------------------------------------------|
g------------------------------------------------.|
d-10-10----10-10-10--10-10-10--------------------.|
a-6--6-----6--6--8---8--8--8----------------------|
e-------------------------------------------------|
  wonder. Every sea, every creature, every star
  wonder. What a vision, what a wonder You are.




2nd verse
Such a wonder ordering time and tide
Such a wonder bridging the great divide
I consider all that You had, all you gave
All that You endured from this rebel world
What a wondrous cross You chose to bear
What a wonder You would even care.
Tap to rate this tab
# A B C D E F G H I J K L M N O P Q R S T U V W X Y Z