Song name
# A B C D E F G H I J K L M N O P Q R S T U V W X Y Z

Newsboys - Shine tab

Artist: Newsboys
Album: Going Public [1994]  copyright by Star Song Communications
Song: Shine
Copyright: Star Song Communications

Basic Chords: 	Main: F	G	Am	Am?,	F	G,	C
                          Chorus: C	F	C	F
1)	Common time used 4/4 (4 beats in a bar, quarter note gets the
beat). Played at ? 104 MM. Or at least between andante and moderato
(practise slow first if you’re just beginning guitar!)

2)	All instruments under a heading (ie. “Intro 1”) are played at
the SAME time, except for Fills (which are indicated in the
Beat/Chord tab). The Beat/Chord uses the exact same 4/4 timing, it’s
just for chords.

3)	When képo engaged on a fret, all named values (ie. 7) are
relative to position of képo (ie. if you played a 3 without a képo
engaged, that would be the same as playing a 0 with the képo engaged
on the 3rd fret).

= barlines
---- (or - - - - for the Beat/Chord tab) = the 4 beats in each bar.
= Medium vibrato


Intro 1
(1st guitar with phaser) + képo on 3rd fret
----|----|----|----|----|----|----|-----|
----|----|----|----|----|----|----|-----|
----|----|----|----|----|----|----|-----|
7--7|--7-|--77|--77|7--7|--7-|--77|--77-|
--0-|-0--|00--|00--|--0-|-0--|00--|00---|
----|----|----|----|----|----|----|-----|

----|----|----|----|----|----|----|----|
----|----|----|----|----|----|----|----|
----|----|----|----|----|----|----|----|
7--7|--7-|-7--|7-7-|7--7|--7-|-7--|7-9-|
--0-|-0--|0--0|-0--|--0-|-0--|0--0|-0--|
----|----|----|----|----|----|----|----|

(keyboard but arranged for guitar: with distortion)  + képo on 3rd fret
----|----|----|----|----|----|2-3-|5---|
----|----|2-3-|5---|3---|----|----|----|
2---|----|----|--2-|----|----|----|--2-|
----|----|----|----|----|----|----|----|
----|----|----|----|----|----|----|----|
----|----|----|----|----|----|----|----|

----|----|----|----|----|----|----|----|
2---|----|--0-|0-0-|----|----|----|----|
----|----|----|----|2---|----|----|----|
----|----|----|----|----|----|----|----|
----|----|----|----|----|----|----|----|
----|----|----|----|----|----|----|----|

Intro 2
(1st guitar with phaser) + képo on 3rd fret
----|----|----|----|----|----|----|-----|
----|----|----|----|----|----|----|-----|
----|----|----|----|----|----|----|-----|
7--7|--7-|--77|--77|7--7|--7-|--77|--77-|
--0-|-0--|00--|00--|--0-|-0--|00--|00---|
----|----|----|----|----|----|----|-----|

----|----|----|----|----|----|----|----|
----|----|----|----|----|----|----|----|
----|----|----|----|----|----|----|----|
7--7|--7-|-7--|7-7-|7--7|--7-|-7--|7-9-|
--0-|-0--|0--0|-0--|--0-|-0--|0--0|-0--|
----|----|----|----|----|----|----|----|

(keyboard but arrange for guitar: with distortion)  + képo on 3rd fret
----|----|----|----|----|----|2-3-|5---|
----|----|2-3-|5---|3---|----|----|----|
2---|----|----|--2-|----|----|----|--2-|
----|----|----|----|----|----|----|----|
----|----|----|----|----|----|----|----|
----|----|----|----|----|----|----|----|

----|----|----|----|----|----|----|----|
2---|----|--0-|0-0-|----|----|----|----|
----|----|----|----|2---|----|----|----|
----|----|----|----|----|----|----|----|
----|----|----|----|----|----|----|----|
----|----|----|----|----|----|----|----|

(2nd guitar with flange, write me for suggested settings)
NO KÉPO (HOLD THROUGH)
----|----|----|----|----|----|----|-----|
----|----|----|----|----|----|----|-----|
----|----|----|----|----|----|----|-----|
----|----|----|----|----|----|----|-----|
3---|----|~~~~|~~~~|~~~~|~~~~|~~~~|~~~~-|
----|----|----|----|----|----|----|-----|

----|----|----|----|----|----|----|----|
----|----|----|----|----|----|----|----|
----|----|----|----|----|----|----|----|
----|----|----|----|----|----|----|----|
~~~~|~~~~|~~~~|~~~~|~~~~|~~~~|~~~~|~~~~
----|----|----|----|----|----|----|----


Intro 3
(1rst guitar with light clean distortion) NO MORE KÉPO AT ALL
----|----|----|----|----|----|----|----|
----|----|----|----|----|----|----|----|
----|----|----|----|----|----|2-3-|5---|
----|----|2-3-|5---|3---|--33|----|--3-|
3---|--33|----|--3-|----|----|----|----|
----|----|----|----|----|----|----|----|

----|----|----|----|----|----|----|-----|
----|----|----|----|----|6-5-|----|-----|
----|----|----|----|----|----|5-7-|-----|
2---|--22|2-0-|0-0-|----|----|----|8----|
----|----|----|----|3---|----|----|-----|
----|----|----|----|----|----|----|-----|

(2nd guitar with flange, write me for suggested settings)
NO MORE KÉPO AT ALL
----|----|----|----|----|----|----|----|
----|----|----|----|----|----|----|----|
----|----|----|----|----|----|2-3-|5---|
----|----|2-3-|5---|3---|--33|----|--3-|
3---|--33|----|--3-|----|----|----|----|
----|----|----|----|----|----|----|----|

----|----|----|----|----|----|----|----|
----|----|----|----|----|----|----|----|
----|----|----|----|----|----|----|----|
5---|--55|5-3-|2---|3---|3-2-|----|----|
----|----|----|----|----|----|3-5-|----|
----|----|----|----|----|----|----|6---|

Verse 1:
Pattern a
    "   b
    "   c
    "   d

Beat/Chord (1rst guitar with light clean distortion):
a |F -  -  - |F -  -  - |-  -  F - |F - - -
b |G -  -  - |G -  -  - |-  -  G - |G - - -
c |Am- - - |Am- - - |- - Am- |Am- - -
d |Am- - - |Am- - - |- - Am- |(fill, can’t quite get it)

Verse 2:
Pattern a
   "    b
   "    c
   "    d

Beat/Chord (1rst guitar with light clean distortion):
a |F - - - |F - - - |- - F - |F - - -
b |G - - - |G - - - |- - G - |G - - -
c |C(fill1)|- - - - |- - - -|- - - -
d |-  - - - |- - - -|- - - -|- - - -

Fill 1 (2nd guitar switch to clean sound and let ring out)
----|--0-|----|--0-|----|---0|----|--0-|
--1-|3---|-1-1|3---|--1-|3-1-|-1-1|3---|
0---|---0|----|----|0---|----|----|----|
----|----|----|----|----|----|----|----|
----|----|----|----|----|----|----|----|
----|----|----|----|----|----|----|----|

Chorus 1:
Pattern a
   "    b
   "    c
   "    d

Beat/Chord (1rst guitar with light clean distortion):
a |C - - - |- - - - |- - - - |
b |F - - - |- - - - |- - - - |
a |C - - - |- - - - |- - - - |
b |F - - - |- - - - |- - - - |

(2nd guitar with flange)
----|----|----|----|----|----|----|----|
----|----|----|----|----|----|----|----|
----|----|----|----|----|----|2-3-|5---|
----|----|2-3-|5---|3---|--33|----|--3-|
3---|--33|----|--3-|----|----|----|----|
----|----|----|----|----|----|----|----|

----|----|----|----|----|----|----|----|
----|----|----|----|----|6-5-|----|----|
----|----|----|----|----|----|5-7-|----|
5---|--55|5-3-|2-2-|----|----|----|8---|
----|----|----|----|3---|----|----|----|
----|----|----|----|----|----|----|----|

There
Tap to rate this tab
# A B C D E F G H I J K L M N O P Q R S T U V W X Y Z