Song name
# A B C D E F G H I J K L M N O P Q R S T U V W X Y Z

Newsboys - Go tab

Help us improve GuitareTab! Take a short survey!
GO by NB
 su=slide up
 sd=slide down
intro
e---------------------------------------|
b---------------------------------------|
g---------------------------------------|
d---------------------------------------|
a---------------------------------------|
e-9-9-7--7-9-9-9----9-9-7---7-9-9--9--\-|

verses
e-9---9---9-9--9----9--9-7--7-9-9-9-12-12--|
b-9---9---9-9--9----9--9-7--7-9-9-9-12-12--|
g------------------------------------------| repeat 2x
d------------------------------------------|
a------------------------------------------|
e------------------------------------------|

e-7--7--777777777-9-su9-7-5--------|
b-7--7--777777777-9---------7------|
g-----------------------------6~~~-|
d----------------------------------|
a----------------------------------|
e----------------------------------|

chorus
e------------------------          ------------|
b------------------------          ------------|
g------------------------ repeat   ------------|
d-9-9999-9999-9999-7-8-9-          ---4--44-2--|
a-9-9999-9999-9999-7-8-9-          ---4--44-2--|
e-7-7777-7777-7777-5-6-7-          -0-2--22-0--|

bridge
e---9---|
b---9---| repeat
g---9---|
Related for Go tab