Guitaretab - guitar tabs
Song name
# A B C D E F G H I J K L M N O P Q R S T U V W X Y Z

Newsboys - Breakfast tab

Intro

E-----------------------------------------------------------------------|
B-----------------------------------------------------------------------|
G---4--4--4--9--9--9---4--4--4--9--9--9---------------------------------|
D--2--2--2---7--7--7--2--2--2---7--7--7---------------------------------|
A-----------------------------------------------------------------------|
E-----------------------------------------------------------------------|x4

Verse 1

E-----------------------------------------------------------------------|
B-----------------------------------------------------------------------|
G--------------------4--4-----------------------------4--4--------------|
D---6--6--6--6--6---2--2---4--4--4---6--6--6--6--6---2--2---4--4--4-----|
A--4--4--4--4--4----------2--2--2---4--4--4--4--4----------2--2--2------|
E-----------------------------------------------------------------------|
   Hold the milk put back the sugar they are powerless to console

E-----------------------------------------------------------------------|
B-----------------------------------------------------------------------|
G-------------------4--4-----------------------------4--4---------------|
D--6--6--6--6--6---2--2---4--4--4---6--6--6--6--6---2--2---4--4--4------|
A-4--4--4--4--4----------2--2--2---4--4--4--4--4----------2--2--2-------|
E-----------------------------------------------------------------------|
   We gather here to sprinkle ashes from our late friends cereal bowl

E-----------------------------------------------------------------------|
B-----------------------------------------------------------------------|
G--------------------4--4-----------------------------4--4--------------|
D---6--6--6--6--6---2--2---4--4--4---6--6--6--6--6---2--2---4--4--4-----|
A--4--4--4--4--4----------2--2--2---4--4--4--4--4----------2--2--2------|
E-----------------------------------------------------------------------|
   Breakfast clubbers say the motto that he taught us to repeat

E-----------------------------------------------------------------------|
B-----------------------------------------------------------------------|
G--------------------4--4-----------------------------4--4--------------|
D---6--6--6--6--6---2--2---4--4--4---6--6--6--6--6---2--2---4--4--4-----|
A--4--4--4--4--4----------2--2--2---4--4--4--4--4----------2--2--2------|
E-----------------------------------------------------------------------|
   You will lose it in your gym class if you wait till noon to eat
[ Tab from: http://www.guitaretab.com/n/newsboys/22398.html ]
Bridge
E-----------------------------------------------------------------------|
B-----------------------------------------------------------------------|
G---6--6--6--6--6--4--4---9--9--9---6--6--6--6--6--4--4---9--9--9--9----|
D--4--4--4--4--4--2--2---7--7--7---4--4--4--4--4--2--2---7--7--7--7-----|
A-----------------------------------------------------------------------|
E-----------------------------------------------------------------------|
   Back when the chess club...        Every monday he'd say grace...

E-----------------------------------------------------------------------|
B-----------------------------------------------------------------------|
G---6--6--6--6--6--4--4---9--9--9---6--6--6--6--6--4--4---9--9--9--9----|
D--4--4--4--4--4--2--2---7--7--7---4--4--4--4--4--2--2---7--7--7--7-----|
A-----------------------------------------------------------------------|
E-----------------------------------------------------------------------|
  Oh none of us knew his...           But before his brain stopped...


Chorus
E-----------------------------------------------------------------------|
B---7---7---7---7-------------------------------------------------------|
G---6---6---6---6--2--2--2--2--------------2--2--2--2-------------------|
D---4---4---4---4--2--2--2--2--4--4--4--4--2--2--2--2-------------------|
A------------------0--0--0--0--4--4--4--4--0--0--0--0-------------------|
E------------------------------2--2--2--2-------------------------------|
   When the toast has burned and all the milk has turned and

E-----------------------------------------------------------------------|
B---7---7---7---7--------------3/5--5--5--5--5--5--5--5-----------------|
G---6---6---6---6--2--2--2--2--2/4--4--4--4--4--4--4--4-----------------|
D---4---4---4---4--2--2--2--2--0/2--2--2--2--2--2--2--2-----------------|
A------------------0--0--0--0-------------------------------------------|
E-----------------------------------------------------------------------|
  Captain crunch is waving fare well

E-----------------------------------------------------------------------|
B---7---7---7---7-------------------------------------------------------|
G---6---6---6---6--2--2--2--2--------------2--2--2--2-------------------|
D---4---4---4---4--2--2--2--2--4--4--4--4--2--2--2--2-------------------|
A------------------0--0--0--0--4--4--4--4--0--0--0--0-------------------|
E------------------------------2--2--2--2-------------------------------|
   When the big one finds you may this song remind you that they

E-----------------------------------------------------------------------|
B---7---7---7---7--------------3/5--5--5--5--5--5--5--5-----------------|
G---6---6---6---6--2--2--2--2--2/4--4--4--4--4--4--4--4-----------------|
D---4---4---4---4--2--2--2--2--0/2--2--2--2--2--2--2--2-----------------|
A------------------0--0--0--0-------------------------------------------|
E-----------------------------------------------------------------------|
   Don't serve breakfast in hell

Verse 1x

Bridge 1x

Chorus 1x

Intro 4x- Chorus 1x (during whistling)

Chorus until done

Please tell me how I did! Itís my first tab!
Related for Breakfast tab