Song name
# A B C D E F G H I J K L M N O P Q R S T U V W X Y Z

Newsboys - Fad Of The Land tab

Artist: Newsboys
Song: The Fad Of The Land
Album: Thrive
Tabbed by: Brittons0


1st Verse (Acoustic only): Play 8 Times

e--------------------------|
B--------------------------|
G-9/11-11-11---------------|
D-9/11-11-11-11-9-9-7/9-7--|
A-7/9--9--9--11-9-9-7/9-7--|
E-------------9-7-7-5/7-5--|
I'm a marinade
Of what's hot this summer
I'm an early comer
Bought a Gulf War Hummer

Every fad, I feel its force
Every trend, I do endorse
Got my genomes mapping
Caught my smart dog napping

Pre Chorus
e----------------------------------|
B----------------------------------|
G-----------------7-7-7-7-7-7-7-7--|
D-7-7-7-7-7-7-7-7-7-7-7-7-7-7-7-7--|
A-7-7-7-7-7-7-7-7-5-5-5-5-5-5-5-5--|
E-5-5-5-5-5-5-5-5------------------|
I'm charging up the new, new thing
I'm answering a customized ring
I'm starting from the place you stop
I'm packing for an ego trip...hop


Chorus: Play this three times

e-------------xxxxxxxxxx--|
B-------------xxxxxxxxxx--|
G-9/11-11-----xxxxxxxxxx--|
D-9/11-11-11--xxxxxxxxxx--|  (x3)
A-7/-9--9-11--xxxxxxxxxx--|
E----------9--xxxxxxxxxx--|
Stop the scam
You day traders in a traffic jam
Can the craze
All you players outta plays
Fight the man
All you suckers for a better brand
e-x-----------------------------------|
B-x-----------------------------------|
G-x-----------------------------------|
D-x11-11-11-11-11-11-11-11-11-9-7-4---|
A-x11-11-11-11-11-11-11-11-11-9-7-4---|
E-x9---9--9--9--9--9--9--9--9-7-5-2---|
They got us livin' off the fad o' the land

Intro

Verse 2 (same as verse 1)
Get your pager on
'Cause you know my number
I'm a wireless wonder
Got thumbs of thunder

Pre Chorus
Chorus

Bridge
e-------------------|
B-------------------|
G-9-----------------|
D-9(x8)-7------(x2)-|
A-7-----7(x8)-------|
E-------5-----------|
Soul daddies in a fire wire tumble dryer
Soul mamas broke the breaker

e---------------------|
B---------------------|
G---------------------|
D-10(x8)-11------(x2)-|
A-10-----11(x8)-------|
E--8------9-----------|
Soul children packin' Prozac pacifiers
e----------------------|
B----------------------|
G----------------------|
D-10(x15)-9-11---------|
A-10------9-11---------|
E-8-------7--9---------|
Get your plug-in
We all need to plug into our Maker

Intro
Pre Chorus
Chorus (x2) (repeat last line 3x)

Listen to the song to get the timing.
Tap to rate this tab
# A B C D E F G H I J K L M N O P Q R S T U V W X Y Z