Guitaretab - guitar tabs
Song name
# A B C D E F G H I J K L M N O P Q R S T U V W X Y Z

Newsboys - Everyones Someone tab

Everyone's Someone
Newsboys
Album: Love Liberty Disco
C1999 Dawn Treader Music
Tabbed by Steve Cruickshank

Introduction

e-----5-7-5------5-7-5------5-7-7-5-|
B-5-7--------5-7--------5-7---------|


Verse1:
e-2-0-2------------------2-0-2-----------------------|
B-3-0-4-----/7--7--------3-0-4-----------------------|
G-2-1-4---7-------9p7----2-1-4-----------------------|
D-0-2-4---7-----------9--0-2-4----/7-7-7h9---9-------|
A---2-2--------------------2-2-----------------7/5-5-|
E---0----------------------0-------------------------|

e-2-0-2---/7-10-14---14\10-7h10p7---2-0-2---------------------------|
B-3-0-4-----------------------------3-0-4---------------------------|
G-2-1-4-----------------------------2-1-4---------------------------|
D-0-2-4-----------------------------0-2-4------------7--------------|
A---2-2-------------------------------2-2-------7-/9---9\7----------|
E---0---------------------------------0----7-10-----------10-7h10p7-|


Chorus:
G                        D            A
When it all comes round, everyone's someone

Riff played on A
D--------------------|
A-4-4--4-5-7-5-4-----|
E----------------5-7-|

[ Tab from: http://www.guitaretab.com/n/newsboys/292688.html ]
Verse 2:
e-2-0-2----------------------2-0-2----------------------14-12p10-14-|
B-3-0-4----------------------3-0-4--------10h12-10/12-10------------|
G-2-1-4--7-------------------2-1-4----------------------------------|
D-0-2-4--7-9-7-7h9-7---------0-2-4---12h13--------------------------|
A---2-2--------------7\5-7-5---2-2----------------------------------|
E---0--------------------------0------------------------------------|

e-2-0-2--------------------------2-0-2--------------------------|
B-3-0-4--------------------------3-0-4--------------------------|
G-2-1-4----7-9-9p7--------7------2-1-4--7-11\--/11-9p7----------|
D-0-2-4-7/9--------9-7-7h9-------0-2-4--7----9--------9---------|
A---2-2---------------------9\5----2-2------------------7p9-5---|
E---0------------------------------0----------------------------|



Solo: Bass plays  D,E,B

Heavily distorted
e----------------------------------------------|
B------------------------7--------------10-10~-|
G--------7-9b11r8-7-9~-----7---11-7-7-11-------|
D------9---------------------------------------|
 D E B              D   E  B  D E       B

e-14-14-14----14----------------------------------|
B-------17b19-15-15-----12-12h15p12---------------|
G---------------------14-----------14-11h14p11----|
D----------------------------------------------12-|
D     E  B

There are a ton of little improvised guitar parts in this song.
I took the time to figure out the ones used in the verses and a rough
estimate of the solo, but I didnt include all the riffs at the outro of
the song. Perhaps if Im really bored some day...
Its a fun song to improvise stuff on
Related for Everyones Someone tab