Song name
# A B C D E F G H I J K L M N O P Q R S T U V W X Y Z

Newsboys - One Shot tab

I did this tab on an acoustic because I do not have an electric guitar yet. Should have 
one soon... Anyways back to the tab...

INTRO
 (Dm)  (C)  (F)  (Am)
e-1-1--0-0--1-1--0-0-/
B-3-3--1-1--1-1--1-1-/
G-2-2--0-0--2-2--2-2-/
D-0-0--2-2--3-3--2-2-/
A------3-3--3-3--0-0-/
E-----------1-1------/ (x2)
                    (for the Am, strum down/up/down/up/down/up/down/up)
e-1-1-x-x-x-x-0-0-x-x-x-x-1-1-x-x-x-x-0-0-0-0-0-0-0-0-/
B-3-3-x-x-x-x-1-1-x-x-x-x-1-1-x-x-x-x-1-1-1-1-1-1-1-1-/
G-2-2-x-x-x-x-0-0-x-x-x-x-2-2-x-x-x-x-2-2-2-2-2-2-2-2-/
D-0-0-x-x-x-x-2-2-x-x-x-x-3-3-x-x-x-x-2-2-2-2-2-2-2-2-/
A-------------3-3---------3-3-x-x-x-x-0-0-0-0-0-0-0-0-/
E-------------------------1-1-x-x-x-x-----------------/ (x2)

VERSE (I play during this part. Not sure why though XD...)
                                                          (G)
e-1-1-1-1-1-1-1-1--1-1-1-1-1-1-1-1--0-0-0-0-0-0-0-0-2-2-2-2-2-2-2-2-/
B-3-3-3-3-3-3-3-3--1-1-1-1-1-1-1-1--1-1-1-1-1-1-1-1-0-0-0-0-0-0-0-0-/
G-2-2-2-2-2-2-2-2--2-2-2-2-2-2-2-2--2-2-2-2-2-2-2-2-0-0-0-0-0-0-0-0-/
D-0-0-0-0-0-0-0-0--3-3-3-3-3-3-3-3--2-2-2-2-2-2-2-2-0-0-0-0-0-0-0-0-/
A------------------3-3-3-3-3-3-3-3--0-0-0-0-0-0-0-0-2-2-2-2-2-2-2-2-/
E------------------1-1-1-1-1-1-1-1------------------3-3-3-3-3-3-3-3-/ (x2)

PRE-CHORUS

e-1-1-1-1-1-1-/
B-3-3-3-3-3-3-/
G-2-2-2-2-2-2-/
D-0-0-0-0-0-0-/
A-------------/
E-------------/

CHORUS

e-1-1-x-x-x-x-0-0-x-x-x-x-1-1-x-x-x-x-0-0-0-0-0-0-0-0-/
B-3-3-x-x-x-x-1-1-x-x-x-x-1-1-x-x-x-x-1-1-1-1-1-1-1-1-/
G-2-2-x-x-x-x-0-0-x-x-x-x-2-2-x-x-x-x-2-2-2-2-2-2-2-2-/
D-0-0-x-x-x-x-2-2-x-x-x-x-3-3-x-x-x-x-2-2-2-2-2-2-2-2-/
A-------------3-3---------3-3-x-x-x-x-0-0-0-0-0-0-0-0-/
E-------------------------1-1-x-x-x-x-----------------/ (x2)

e-1-1--2-2--1-1-1-0-0-0-0-0-0-0-/
B-2-2--0-0--1-1-1-1-1-1-1-1-1-1-/
G-3-3--0-0--2-2-2-2-2-2-2-2-2-2-/
D-0-0--0-0--3-3-3-2-2-2-2-2-2-2-/
A------2-2--3-3-3-0-0-0-0-0-0-0-/
E------3-3--1-1-1---------------/

e-1-1-x-x-x-x-0-0-x-x-x-x-1-1-x-x-x-x-0-0-0-0-0-0-0-0-/
B-3-3-x-x-x-x-1-1-x-x-x-x-1-1-x-x-x-x-1-1-1-1-1-1-1-1-/
G-2-2-x-x-x-x-0-0-x-x-x-x-2-2-x-x-x-x-2-2-2-2-2-2-2-2-/
D-0-0-x-x-x-x-2-2-x-x-x-x-3-3-x-x-x-x-2-2-2-2-2-2-2-2-/
A-------------3-3---------3-3-x-x-x-x-0-0-0-0-0-0-0-0-/
E-------------------------1-1-x-x-x-x-----------------/

VERSE

e-1-1-1-1-1-1-1-1--1-1-1-1-1-1-1-1--0-0-0-0-0-0-0-0--2-2-2-2-2-2-2-2-/
B-3-3-3-3-3-3-3-3--1-1-1-1-1-1-1-1--1-1-1-1-1-1-1-1--0-0-0-0-0-0-0-0-/
G-2-2-2-2-2-2-2-2--2-2-2-2-2-2-2-2--2-2-2-2-2-2-2-2--0-0-0-0-0-0-0-0-/
D-0-0-0-0-0-0-0-0--3-3-3-3-3-3-3-3--2-2-2-2-2-2-2-2--0-0-0-0-0-0-0-0-/
A------------------3-3-3-3-3-3-3-3--0-0-0-0-0-0-0-0--2-2-2-2-2-2-2-2-/
E------------------1-1-1-1-1-1-1-1-------------------3-3-3-3-3-3-3-3-/ (x2)

PRE-CHORUS

e-1-1-1-1-1-1-/
B-3-3-3-3-3-3-/
G-2-2-2-2-2-2-/
D-0-0-0-0-0-0-/
A-------------/
E-------------/

CHORUS
"All around the world..."
e-1-1-x-x-x-x-0-0-x-x-x-x-1-1-x-x-x-x-0-0-0-0-0-0-0-0-/
B-3-3-x-x-x-x-1-1-x-x-x-x-1-1-x-x-x-x-1-1-1-1-1-1-1-1-/
G-2-2-x-x-x-x-0-0-x-x-x-x-2-2-x-x-x-x-2-2-2-2-2-2-2-2-/
D-0-0-x-x-x-x-2-2-x-x-x-x-3-3-x-x-x-x-2-2-2-2-2-2-2-2-/
A-------------3-3---------3-3-x-x-x-x-0-0-0-0-0-0-0-0-/
E-------------------------1-1-x-x-x-x-----------------/ (x2)

e-1-1--2-2--1-1-1-0-0-0-0-0-0-0-/
B-2-2--0-0--1-1-1-1-1-1-1-1-1-1-/
G-3-3--0-0--2-2-2-2-2-2-2-2-2-2-/
D-0-0--0-0--3-3-3-2-2-2-2-2-2-2-/
A------2-2--3-3-3-0-0-0-0-0-0-0-/
E------3-3--1-1-1---------------/

e-1-1-x-x-x-x-0-0-x-x-x-x-1-1-x-x-x-x-0-0-0-0-0-0-0-0-/
B-3-3-x-x-x-x-1-1-x-x-x-x-1-1-x-x-x-x-1-1-1-1-1-1-1-1-/
G-2-2-x-x-x-x-0-0-x-x-x-x-2-2-x-x-x-x-2-2-2-2-2-2-2-2-/
D-0-0-x-x-x-x-2-2-x-x-x-x-3-3-x-x-x-x-2-2-2-2-2-2-2-2-/
A-------------3-3---------3-3-x-x-x-x-0-0-0-0-0-0-0-0-/
E-------------------------1-1-x-x-x-x-----------------/

BRIDGE

e-1-1-1--1-1-1-/
B-3-3-3--1-1-1-/
G-2-2-2--2-2-2-/
D-0-0-0--3-3-3-/
A--------3-3-3-/
E--------1-1-1-/ (x4) I replaced the piano with guitar... If you don't mind :D

CHORUS

e-1-1-x-x-x-x-0-0-x-x-x-x-1-1-x-x-x-x-0-0-0-0-0-0-0-0-/
B-3-3-x-x-x-x-1-1-x-x-x-x-1-1-x-x-x-x-1-1-1-1-1-1-1-1-/
G-2-2-x-x-x-x-0-0-x-x-x-x-2-2-x-x-x-x-2-2-2-2-2-2-2-2-/
D-0-0-x-x-x-x-2-2-x-x-x-x-3-3-x-x-x-x-2-2-2-2-2-2-2-2-/
A-------------3-3---------3-3-x-x-x-x-0-0-0-0-0-0-0-0-/
E-------------------------1-1-x-x-x-x-----------------/ (x2)

e-1-1--2-2--1-1-1-0-0-0-0-0-0-0-/
B-2-2--0-0--1-1-1-1-1-1-1-1-1-1-/
G-3-3--0-0--2-2-2-2-2-2-2-2-2-2-/
D-0-0--0-0--3-3-3-2-2-2-2-2-2-2-/
A------2-2--3-3-3-0-0-0-0-0-0-0-/
E------3-3--1-1-1---------------/

e-1-1-x-x-x-x-0-0-x-x-x-x-1-1-x-x-x-x-0-0-0-0-0-0-0-0-/
B-3-3-x-x-x-x-1-1-x-x-x-x-1-1-x-x-x-x-1-1-1-1-1-1-1-1-/
G-2-2-x-x-x-x-0-0-x-x-x-x-2-2-x-x-x-x-2-2-2-2-2-2-2-2-/
D-0-0-x-x-x-x-2-2-x-x-x-x-3-3-x-x-x-x-2-2-2-2-2-2-2-2-/
A-------------3-3---------3-3-x-x-x-x-0-0-0-0-0-0-0-0-/
E-------------------------1-1-x-x-x-x-----------------/

OUTRO

e-1-1-x-x-x-x-0-0-x-x-x-x-1-1-x-x-x-x-0-0-0-0-0-0-0-0-/
B-3-3-x-x-x-x-1-1-x-x-x-x-1-1-x-x-x-x-1-1-1-1-1-1-1-1-/
G-2-2-x-x-x-x-0-0-x-x-x-x-2-2-x-x-x-x-2-2-2-2-2-2-2-2-/
D-0-0-x-x-x-x-2-2-x-x-x-x-3-3-x-x-x-x-2-2-2-2-2-2-2-2-/
A-------------3-3---------3-3-x-x-x-x-0-0-0-0-0-0-0-0-/
E-------------------------1-1-x-x-x-x-----------------/

e-1-1-x-x-x-x-0-0-x-x-x-x-1-1-x-x-x-x-0-0-x-x-x-x-/
B-3-3-x-x-x-x-1-1-x-x-x-x-1-1-x-x-x-x-1-1-x-x-x-x-/
G-2-2-x-x-x-x-0-0-x-x-x-x-2-2-x-x-x-x-2-2-x-x-x-x-/
D-0-0-x-x-x-x-2-2-x-x-x-x-3-3-x-x-x-x-2-2-x-x-x-x-/
A-------------3-3-x-x-x-x-3-3-x-x-x-x-0-0-x-x-x-x-/
E-------------------------1-1-x-x-x-x-------------/

e-1-1-1-1-1-1-1-1-0-0-0-0-2-2-2-2-/
B-3-3-3-3-1-1-1-1-1-1-1-1-0-0-0-0-/
G-2-2-2-2-2-2-2-2-2-2-2-2-0-0-0-0-/
D-0-0-0-0-3-3-3-3-2-2-2-2-0-0-0-0-/
A---------3-3-3-3-0-0-0-0-2-2-2-2-/
E---------1-1-1-1---------3-3-3-3-/ (x2)

"All around the wo-orld..."

And by the way, this is my first tab... And I'm 12, so please say nice things and don't 
make me cry! Lol:) Have fun! Corrections welcome and I will take note of them:)
Tap to rate this tab
# A B C D E F G H I J K L M N O P Q R S T U V W X Y Z