Song name
# A B C D E F G H I J K L M N O P Q R S T U V W X Y Z

Newsboys - Breakfast tab

Breakfast

Intro

E-----------------------------------------------------------------------|
B-----------------------------------------------------------------------|
G-----------------------------------------------------------------------|
D-----------9--9--9--9--14--14---9--9--9—-9---14-—14--------------------|
A----------7--7--7--7--12--12---7--7--7--7---12--12---------------------|
E-----------------------------------------------------------------------|x2

Verse 1

E-----------------------------------------------------------------------|
B-----------------------------------------------------------------------|
G-----------------------------------------------------------------------|
D---6--6--6--6--6----9--9--4--4--4---6--6--6--6--6----9--9--4--4--4-----|
A--4--4--4--4--4----7--7--2--2--2---4--4--4--4--4----7--7--2--2--2------|
E-----------------------------------------------------------------------|
   Hold the milk put back the sugar they are powerless to console

E-----------------------------------------------------------------------|
B-----------------------------------------------------------------------|
G-----------------------------------------------------------------------|
D--6--6--6--6--6----9--9--4--4--4---6--6--6--6--6----9--9--4--4--4------|
A-4--4--4--4--4----7--7--2--2--2---4--4--4--4--4----7--7--2--2--2-------|
E-----------------------------------------------------------------------|
   We gather here to sprinkle ashes from our late friend’s cereal bowl

E-----------------------------------------------------------------------|
B-----------------------------------------------------------------------|
G-----------------------------------------------------------------------|
D---6--6--6--6--6----9--9--4--4--4---6--6--6--6--6----9--9--4--4--4-----|
A--4--4--4--4--4----7--7--2--2--2---4--4--4--4--4----7---7---2--2--2----|
E-----------------------------------------------------------------------|
   Breakfast clubbers say the motto that he taught us to repeat

E-----------------------------------------------------------------------|
B-----------------------------------------------------------------------|
G-----------------------------------------------------------------------|
D---6--6--6--6--6---9--9--4--4--4---6--6--6--6--6---9--9--4--4--4-------|
A--4--4--4--4--4---7--7--2--2--2---4--4--4--4--4---7--7--2--2--2--------|
E-----------------------------------------------------------------------|
   You will lose it in your gym class if you wait till noon to eat

Bridge
E-----------------------------------------------------------------------|
B-----------------------------------------------------------------------|
G-----------------------------------------------------------------------|
D---6--6--6--6--6--4--4---9--9--9---6--6--6--6--6--4--4---9--9--9--9----|
A--4--4--4--4--4--2--2---7--7--7---4--4--4--4--4--2--2---7--7--7--7-----|
E-----------------------------------------------------------------------|
   Back when the chess club...        Every Monday he'd say grace...





E-----------------------------------------------------------------------|
B-----------------------------------------------------------------------|
G-----------------------------------------------------------------------|
D---11-11-11-11-11-9--9---14-14-14--11-11-11-11-11-9--9---14-14-14-14---|
A--9--9--9--9--9--7--7---12-12-12--9--9--9--9--9--7--7---12-12-12-12----|
E-----------------------------------------------------------------------|
  Oh none of us knew his...           But before his brain stopped...


CHORUS:
     D                  A                  Gbm                  A    
E-----------------------------------------------------------------------|
B-----------------------------------------------------------------------|
G---7------------------6------------------2--------------------6--------|
D---7------------------7------------------4--------------------7--------|
A---5------------------7------------------4--------------------7--------|
E---5------------------5------------------2--------------------5--------|

  When the toast has burned and all the milk has turned and





  D                  A                  E
E-----------------------------------------------------------------------|
B-----------------------------------------------------------------------|
G--7------------------6------------------1(9) --------------------------|
D--7------------------7------------------2(9) --------------------------|
A--5------------------7------------------2(7) --------------------------|
E-----------------------------------------------------------------------|
  
  Captain crunch is waving fare well

     D                  A                  Gbm                  A    
E-----------------------------------------------------------------------|
B-----------------------------------------------------------------------|
G----7------------------6------------------2--------------------6-------|
D----7------------------7------------------4--------------------7-------|
A----5------------------7------------------4--------------------7-------|
E----5------------------5------------------2--------------------5-------|
   When the big one finds you may this song remind you that they

  D                  A                  E
E-----------------------------------------------------------------------|
B-----------------------------------------------------------------------|
G--7------------------6------------------1(9) --------------------------|
D--7------------------7------------------2(9) --------------------------|
A--5------------------7------------------2(7) --------------------------|
E-----------------------------------------------------------------------|
   Don't serve breakfast in hell

Outro
E|-----0-2-0---------------------2-0-----0-0------|
B|---2-------2---------------2-------2------------|
G|-------------4-2-----1-2-4---2-------2----------|
D|-----------------2-4----------------------------|
A|------------------------------------------------|
E|------------------------------------------------|x2
Tap to rate this tab
# A B C D E F G H I J K L M N O P Q R S T U V W X Y Z