Song name
# A B C D E F G H I J K L M N O P Q R S T U V W X Y Z

Newsboys - Something Beautiful tab

-------------------------------------------------------------------------------
                        Something Beautiful  Newsboys
-------------------------------------------------------------------------------
Tabbed by: George Juggles
E-mail: nwells522@hotmail.com   

Tuning: Standard

Verse

    C         G   F                 C        G   F      
e|--------------------------------------------------------------Play-2-times-|
B|---------------------------------------------------------------------------|
G|---5-5-5-5-5------------------------5-5-5-5-5------------------------------|
D|---5-5-5-5-5-5-5-3-3-3-3-3-3-3-3-3--5-5-5-5-5-5-5-3-3-3-3-3-3-3-3-3--------|
A|---3-3-3-3-3-5-5-3-3-3-3-3-3-3-3-3--3-3-3-3-3-5-5-3-3-3-3-3-3-3-3-3--------|
E|-------------3-3-1-1-1-1-1-1-1-1-1------------3-3-1-1-1-1-1-1-1-1-1--------|

     F      G       F       G
e|---------------------------------------------------------------------------|
B|---------------------------------------------------------------------------|
G|---------------------------------------------------------------------------|
D|---3-3-3-3-5-5-5-5-3-3-3-3-5-5-5-5-----------------------------------------|
A|---3-3-3-3-5-5-5-5-3-3-3-3-5-5-5-5-----------------------------------------|
E|---1-1-1-1-3-3-3-3-1-1-1-1-3-3-3-3-----------------------------------------|

Chorus

C (x16)  Am7 (x16)  G (x8)  F (x8)  Repeat
 
Do not play power chords during chorus: play open chords or bar chords

Solo

e|----------------------3-5--5-5--3--3-5---------------------------3-5--3--3-|
B|---3-5--3--5-3--5--3--------------------3-5---3-5--3--5-3--5--3------------|
G|---------------------------------------------------------------------------|
D|---------------------------------------------------------------------------|
A|---------------------------------------------------------------------------|
E|---------------------------------------------------------------------------|

e|---5-----------| Play the solo 2 times.
B|------3-5------|
G|---------------|
D|---------------|
A|---------------|
E|---------------|

Hope you enjoy it, its a really easy song.



************************************

| /   slide up
| \   slide down
| h   hammer-on
| p   pull-off
| ~   vibrato
| +   harmonic
| x   Mute note
| b   Bend
| pb  Pre-bend
| br  Bend release
| pbr Pre-bend release
| brb Bend release bend

************************************

Tap to rate this tab
# A B C D E F G H I J K L M N O P Q R S T U V W X Y Z