Newsboys - In Christ Alone tab

A quick Tab for In Christ alone by the Newsboys

e|---------------------------------------------------|
B|---------------------------------------------------|
G|---------------------9---11-9--------11-9----------|
D|---9--12-12------9-12----------12-9---------12-12--|
A|-12-----------12-----------------------------------|
E|---------------------------------------------------|

e|---------------------------------------------------|
B|---------------------------------------------------|
G|---------------------9---11-9--------11-9----------|
D|---9--12-12------9-12----------12-9---------12-12--|
A|-12-----------12-----------------------------------|
E|---------------------------------------------------|

e|----------------------------------------------------------|
B|----------------------------------------------------------|
G|---11-14-16----16-14-------------19-18-16----16-14--------|
D|-12------------------16-14----16-------------------16-14--|
A|----------------------------------------------------------|
E|----------------------------------------------------------|

e|---------------------------------------------------|
B|---------------------------------------------------|
G|---------------------9---11-9--------11-9----------|
D|---9--12-12------9-12----------12-9---------12-12--|
A|-12-----------12-----------------------------------|
E|---------------------------------------------------|

Please Rate, Suggest and Comment
Tap to rate this tab
 
# A B C D E F G H I J K L M N O P Q R S T U V W X Y Z