Song name
# A B C D E F G H I J K L M N O P Q R S T U V W X Y Z

Newsboys - Breakfest tab

this tab is made by marc jr.


this is standard tuning   e.a.d.g.b.e.

breakfest!!!

newsboys!!!


e------------------------------------------------------|
a------------------------------------------------------|
d------------------------------------------------------| x4
g------9--9--9-------15--15----------------------------|
b----7--7--7-----------12--12--------------------------|
e------------------------------------------------------|

e------------------------------------------------------|
a------------------------------------------------------|
d------------------------------------------------------|x4
g--------6--6--6--6---6--------9--9-----4--4---4-------|
b------4--4--4--4---4--------7--7-----2--2---2---------|
e------------------------------------------------------|


e------------------------------------------------------|
a------------------------------------------------------|
d------------------------------------------------------|x4
g--------11--11--11--11---11------9--9-----15--15---15-|
b------9---9---9---9----9-------7--7-----12--12---12---|
e------------------------------------------------------|


And there is your tab have fun!
Tap to rate this tab
 
# A B C D E F G H I J K L M N O P Q R S T U V W X Y Z