Song name
# A B C D E F G H I J K L M N O P Q R S T U V W X Y Z

Newsboys - Lovelibertydisco tab

Song: Love Liberty Disco
Artist: Newsboys
Album: Love Liberty Disco

Capo on 2nd fret
Play with a higher tone and heavy distortion. A Gibson is nice for this.


Intro Tab 1: Play three times
------------------------------------|
-----0-0---0-----0-0---0------------|
---2-----------2--------------------|
---------4---4-------4---4----------|
------------------------------------|
------------------------------------|

and then...

Intro Tab 2: Play after Tab 1 is played three times
------------------------------------|
-----0-0---0-----0-0---0---0-6------|
---2-----------2--------------------|
---------4---4-------4---4----------|
------------------------------------|
------------------------------------|


Verse 1
First play riff 1, then riff 2, then riff 1, and riff 3, riff 2,
riff 1, riff 2, and finally riff 3

Verse Riff 1:

---2--------------------------------|
---3-3s-0---------------------------|
-------------------2----------------|
----------0--0-0-2---4-----2--------|
-----------------------0-2----------|
------------------------------------|


Verse Riff 2

---2--------------------------------|
---3-3s-0---------------------------|
-------------------2----------------|
----------0--0-0-2---4-4-4-4--------|
------------------------------------|
------------------------------------|

Verse Riff 3

---3---------------------------------|
---2-3s-0----------------------------|
-------------------2-----------------|
----------0--0-0-2---4--2-0----------|
----------------------------2--------|
------------------------------2------|


Chorus 1 and 2:

I'm not sure exactly how to play it, but the
cords seem to be D and G, and are played 4 times each.


Verse 2:
Play riff 1 twice, riff 2, riff 1 twice, then riff 3


CHORUS 1/2


Bridge: Variation of Intro, play 8 times

Bridge Riff (3rd and 8th times are different):
                       | (Ending of 3rd
                       | and 8th time)
-----------------------|------------|
-----0-0--0-----0------|------------|
---2----------2--------|------------|
------------4----------|---4-0------|
-----------------------|------------|
-----------------------|------------|


END CHORUS:

End Chorus Riff:
Play until End

---5-5--5--5-5--3-3--------3--3-3--3-|
---3-3--3--3-3--3-3--0-2-3-3--3-3--3-|
-------------------------------------|
-------------------------------------|
-------------------------------------|
-------------------------------------|
-------------------------------------|


And that's the best I have so far. I'm not sure
about the 2-3 cord in the verses, though.
Tap to rate this tab
 
# A B C D E F G H I J K L M N O P Q R S T U V W X Y Z