Song name
# A B C D E F G H I J K L M N O P Q R S T U V W X Y Z

Newsboys - Wherever We Go tab

Wherever we go
Newsboys

intro
e-10-9-7-xx-77-9-10--|
b-10-9-7-xx-77-9-10--|
g-10-9-7-xx-77-9-10--| repeat as needed
d--------------------|
a--------------------|
e--------------------|

verses
e--------------------------------------------|
b--------------------------------------------|
g--------------------------------------------|
d-xx99-9-11-11-12-12-14-14--9-7-7-7-9-7-7-7--| repeat as needed
a-xx99-9-11-11-12-12-14-14--9-7-7-7-9-7-7-7--|
e-xx77-7-9--9--10-10-12-12--7-5-5-5-7-5-5-5--|

pre-chorus
e--------------------------------------------------------------------------|
b--------------------------------------------------------------------------|
g--------------------------------------------------------------------------|
d-14-14-14-14-14-14-14-14/12-12-12-12-12-12-12-12/14-14-14-14-14-14-14-14--|
a-14-14-14-14-14-14-14-14/12-12-12-12-12-12-12-12/14-14-14-14-14-14-14-14--|
e-12-12-12-12-12-12-12-12/10-10-10-10-10-10-10-10/12-12-12-12-12-12-12-12--|

e-----------------------|
b-----------------------|
g-----------------------|
d-/12-12-12-12/7-7-7-7--|
a-/12-12-12-12/7-7-7-7--|
e-/10-10-10-10/5-5-5-5--|

chorus
e-7-7-xx77-9-10-7-xx77-9-10-7-xx77-9-10-7----10-9-7-----------------|
b-7-7-xx77-9-10-7-xx77-9-10-7-xx77-9-10-7----------10-7-------------|
g-7-7-xx77-9-10-7-xx77-9-10-7-xx77-9-10-7--------------10-9---------|
d-----------------------------------------------------------9-------|
a-------------------------------------------------------------------|
e-------------------------------------------------------------------|

verse
pre chorus
bridge
chorus
Tap to rate this tab
 
# A B C D E F G H I J K L M N O P Q R S T U V W X Y Z