Song name
# A B C D E F G H I J K L M N O P Q R S T U V W X Y Z

Newton Faulkner - Send Me On My Way tab

Help us improve GuitareTab! Take a short survey!
Thought I'd re-do this as it seems nobody's written this in the way I know it...I have 
this in a different way on the Rusted Root version but I don't think I was very clear 
it..ok so here goes.

VERSE

  BASED ON A 'C'
E--0-0--3-3--0-0---|
B--2-2--2-2--3-3---|
G--0-0--0-0--0-0---|  x2
D--2-0--2-2--2-2---|
A--3-3--3-3--3-3---|
E--0-0--0-0--0-0---|

BASED ON AN 'F'
E--1-1--3-3-1-1---|
B--1-1--1-1-3-3---|
G--2-2--2-2-2-2---|  X2
D--3-3--3-3-3-3---|
A--3-3--3-3-3-3---|
E--1-1--1-1-1-1---|
                                   ==X2(WHOLE OF ABOVE REPEATED)


CHORUS
Each chord is played a few times...best if you know the rythme.
(except the last G, which is only played once)

  Am    G    F    G
E--0----3----1----3--|
B--1----0----1----0--|
G--2----0----2----0--|   X3
D--2----0----3----0--|
A--0----2----3----2--|
E--0----3----1----3--|


   F    G  Gm?  G
E--1----3---3---3...
G--1----0---1---0...
B--2----0---0---0...
D--3----0---0---0...
A--3----2---0---2...
E--1----3---3---3...  (hold)

Return to verse

VERSE

  BASED ON A 'C'
E--0-0--3-3--0-0---|
B--2-2--2-2--3-3---|
G--0-0--0-0--0-0---|  x2
D--2-0--2-2--2-2---|
A--3-3--3-3--3-3---|
E--0-0--0-0--0-0---|

BASED ON AN 'F'
E--1-1--3-3-1-1---|
B--1-1--1-1-3-3---|
G--2-2--2-2-2-2---|  X2
D--3-3--3-3-3-3---|
A--3-3--3-3-3-3---|
E--1-1--1-1-1-1---|
                                   ==X2(WHOLE OF ABOVE REPEATED)


And thats it, you just repeat it from there :)
Enjoy.
Hope it's alright
Chelz
xx
p.s - please rate and comment!
Related for Send Me On My Way tab