Song name
# A B C D E F G H I J K L M N O P Q R S T U V W X Y Z

Newton Faulkner - Ufo tab

-----------------------------------------------------------------------------
			     UFO - Newton Faulkner
-----------------------------------------------------------------------------
Tabbed by:Charlie
Email:Some-kind_of-monster@hotmail.co.uk

Tuning:Drop D
 These are just the riffs that are played, not the number of times thy're played or 
it's simpler like this i feel.

  Intro & Chorus:
e|--------------------------------------------------------------------------|
B|--------------------------------------------------------------------------|
G|---9h11---11---------2------------3------9h11----------------2------4-----|
D|---0----------------------------------------------------------------------|
A|-------------------3---3-------5-----5---------------------3--3-----------|
D|---0----0----0--/3--------3/5------------0----0--0--0---/3------3/5-------|
  (It sounds like he's playing the comb or something)

  Verses:
e|--------------------------------------------------------------------------|
B|--------------------------------------------------------------------------|
G|--------------------------------------------------------------------------|
D|--------------------------------------------------------------------------|
A|-8/---------5--7--8/---------5--7--8/---------5--5--7--5/-----------------|
D|-----0--0---0--0--0---0--0---0--0--0---0--0---0--0--0--0---0--0-----------|

e|--------------------------------------------------------------------------|
B|--------------------------------------------------------------------------|
G|--------------------------------------------------------------------------|
D|--------7/--------------------------------7/------------------------------|
A|--5--7--8/---------5--7--8/---------5--7--8/---------5--5--7--5-----------|
D|--0--0--0---0--0---0--0--0---0--0---0--0--0---0--0---0--0--0--0-----------|

 Play chorus

 Then Verse

 Then Chorus

 Then:
e|--------------------|
B|--------------------|
G|--------------------|
D|-0------3------5----|
A|-0------3------5----|
D|-0------3------5----|

 Then play the chorus again

 End on:
e|---------|
B|---------|
G|---------|
D|---------|
A|---------|
D|-0-------|

After the first verse there is what sounds like a sitar playing fills, but i didn't tab 
out, easy enough to figure out if you want to play it.

He does lots of tapping on the guitar, not too sure how to tab that out, but, you can 
it out on your own, not too complicated.

He also slaps lots of dead notes (i think) but, couldn't really figure all that out. 
is near enough anyways.

| /  slide up
| \  slide down
| h  hammer-on
| p  pull-off
| ~  vibrato
| +  harmonic
| x  Mute note
=============================================================================
Tap to rate this tab
# A B C D E F G H I J K L M N O P Q R S T U V W X Y Z