Song name
# A B C D E F G H I J K L M N O P Q R S T U V W X Y Z

Newton Faulkner - Been Thinking About It tab

Heyy its probably in some drop D format tuning but I like to just play it in standard SO
easier so its abviously not 100% but will be Just like it :) unfortunately to play it
you have to drop the D string half a semi tone to C#. the hope you enjoy. Whole song and 
coming shortly. Please correct and comment(:

e|-----------------------------------------|
B|-----------------------------------------|
G|-----------6--s4s3------------1---3-----|
C#|-----------------------14---------------|
A|-----------------------------------------|
E|-6-[X16]-666s444s2[X12]s111111s111s222---|
                     [11 not 1] [1 not 11]

e|-----------------------------------------|
B|-----------------------------------------|
G|-----------6--s4s3----------------------|
C#|------------------0-----13p0---1---3----|
A|-----------------------------------------|
E|---------666s444s2[X12]s111111s111s222---|
Tap to rate this tab
 
# A B C D E F G H I J K L M N O P Q R S T U V W X Y Z