Song name
# A B C D E F G H I J K L M N O P Q R S T U V W X Y Z

Newton Faulkner - Resin On My Heart Strings tab

Hey this is the live intro, Newton uses some weird pedals for bass sounds giving it a 
vibe but this is more or less correct. He plucks the treble strings with his nails making 
sound how it is. any corrections happy to take CONSTRUSCTIVE criticism :)hope you 
find this helpful
* = natural harmonic.

|---------------------------------------|
|-----8-----8-----8-----8-----8---------|
|---------------------------------------|
|---8---8-----8-----8-----8-----8-------|
|-6------6------6-----6-----6-----------|
|---------------------------------------|

|-----------------9*--------------------|
|-----8-----8-----------8-----8---------|
|---------------------------------------|
|---8---8-----8-----8-----8-----8-------|
|-7------7------7-----7-----7-----------|
|---------------------------------------|
Tap to rate this tab
 
# A B C D E F G H I J K L M N O P Q R S T U V W X Y Z