Song name
# A B C D E F G H I J K L M N O P Q R S T U V W X Y Z

Newton Faulkner - Im Not Giving Up Yet tab

                            -------------------------------------------------
                                         I'm Not Giving Up Yet
                                           Newton Faulkner
                            -------------------------------------------------
  

I know this tab is practically nothing! But I hope it'll get someone to tab who 
can help with the chords!



    e|----------------------------------------------------------------|
    A|----------------------------------------14h-9h---------6h-9h----| 
    D|----3--6----3---------------------------------------------------|
    G|--4---4---4--4---3-----------6----8-11--------------------------|
    B|----------------6---4-----8-8--8-9-9----------6-8---------------|
    E|---------------------4s6-------------------------9-4s6----------|



Again, sorry it's so short!!!
And if there's mistakes... Don't think there are, but might be...
So enjoy :)
Tap to rate this tab
# A B C D E F G H I J K L M N O P Q R S T U V W X Y Z