Song name
# A B C D E F G H I J K L M N O P Q R S T U V W X Y Z

Newton Faulkner - Been Thinking About It tab

Been Thinkin' 'bout It
By Newton Faulkner

drop the D string half a semi tone to C#. Then enjoy :)


   VERSE(S) & CHORUS(S)
 e|-------------------------------------------|
 B|-------------------------------------------|
 G|-----------6--4-3--------8--1-3-----------|
C#|-------------------------------------------|
 A|-------------------------------------------|
 E|-6666666666666444222222227771112222222-----|

  'If this was to end right now.....'
 e|------------------------------------------------------|
 B|------------------------------------------------------|
 G|-1---1---1--1---1---1----3---3---3--3---3---3-3-------|
C#|--0---0---0--0---0---0----0---0---0--0---0---0------X2|
 A|------------------------------------------------------|
 E|-1-1-1-1-1-11-1-1-1-1-1--2-2-2-2-2-22-2-2-2-2-2-------|
Tap to rate this tab
# A B C D E F G H I J K L M N O P Q R S T U V W X Y Z