Song name
# A B C D E F G H I J K L M N O P Q R S T U V W X Y Z

Newton Faulkner - Im Not Giving Up Yet tab

Tabbed by: shelikesmylicks
Email: guitarfreak_rick@hotmail.com

Song: I'm Not Giving Up Yet
Artist: Newton Faulkner
Album: Rebuilt by Humans
Tuning: Open C#

Another one in open C#. Pretty sobering song that's fun to play along with. Enjoy :)

Intro:

c#|--------------------------------------------------<12>------------|
G#|--------5-------------------------0----------5----------<12>------|
F |----5------5----0-0------------0-----0-----5---------<12>---<12>--|
C#|-5----5---5-5---2-2h4p2p0-----0-0---------5-5--5------------------|
F#|------------------------------------------------------------------|
C#|--------------------------0h4-------------------------------------|

c#|-------------------<7>----0---0--0---0--0-0-0--0---0--0---0--0---|
G#|---------------<7>--------0---0--0---0--0-0-0--0---0--0---0--0---|
F |-0-0----------------------0h5-5--0h7-7--8-8-8--0h5-5--0h7-7--7---|
C#|-2-2h4p2p0----0---0-------0h5-5--0h7-7--9-9-9--0h5-5--0h7-7--7---|
F#|--------------------------0h5-5--0h7-7--9-9-9--0h5-5--0h7-7--7---|
C#|-----------7h9------------0h5-5--0h7-7--9-9-9--0h5-5--0h7-7--7---|

c#|-0------------0----0--0-----------0----0--0-----------0---0--0-----|
G#|-0------------0----0--0-----------0----0--0-----------0---0--0-----|
F |-3/5\3--------0----0--3/5\3-------0----0--3/5\3-------0---0--3/5\3-|
C#|-0------0h2p0-0---0---0-----0h2p0-0---0---0-----0h2p0-0--0---0-----|
F#|-------------------------------------------------------------------|
C#|-------------------------------------------------------------------|

c#|------------------|
G#|------------------|
F |------------------|
C#|-0h2p0-0----------|
F#|-------0----------|
C#|-------0----------|

Verse:

c#|-0---0---0---0---0---0---0---0--| add 1st or 3rd fret on the F string 
G#|-0---0---0---0---0---0---0---0--| of the second chord for variation
F |-5---0---5---0---5---8---5---0--|
C#|-5---0---5---0---5---9---5---0--|
F#|-5---2---5---2---5---9---5---2--|
C#|-5---0---5---0---5---9---5---0--|

Chorus:

c#|-0---0--0---0--0--0------------0---0--0-----------0---0--0------|
G#|-0---0--0---0--0--0------------0---0--0-----------0---0--0------|
F |-5--/7--0---5-/7--3/5\3--------0---0--3/5\3-------0---0--3/5\3--|
C#|-5--/7--0---5-/7--0------0h2p0-0--0---0-----0h2p0-0--0---0------|
F#|-5--/7--2---5-/7------------------------------------------------|
C#|-5-/7--0----5-/7------------------------------------------------|

c#|-----0---0--0-----------------|
G#|-----0---0--0-----------------|
F |-----0---0--3/5\3-------------|
C#|-0h2p0--0---0------0h2p0-0----|
F#|-------------------------0----|
C#|-------------------------0----|

Bridge:

c#|-------------------------------------0------0------0------0--|
G#|---0-0------0-0----0-0------0-0------0------0------0------0--|
F |---5-3------5-3----5-3------5-3------0------0------0------0--| x2
C#|-5-5-5--5-5-5-5--5-5-5--5-5-5-5--0-0-0--0-0-0--0-0-0--0-0----|
F#|-5------5-5------5------5-5------2-2----2-2----2-2----2-2----|
C#|-5------5-5------5------5-5----------------------------------|

Chorus 2:

c#|-0--0--0--0--0--0--0----0--0--0---0--0--0------0-------0-----------|
G#|-0--0--0--0--0--5--4----0--0--0---0--0--0------0------0------------|
F |-5-/7--0--5-/7--0--0----5-/7--0---5-/7--0------0-----0-------------|
C#|-5-/7--0--5-/7--0--0----5-/7--0---5-/7--0------0----0--------------|
F#|-5-/7--2--5-/7--2--2----5-/7--2---5-/7--2------0---0---------------|
C#|-5-/7--0--5-/7----------5-/7--0---5-/7--0------0--0----------------|
                  Just Yet


Intro

Verse:
Take off all your clothes, I'll show you how we're made
One thing is for sure, that is we are not the same
Some of us destroy, anything that's in our way
While some of us would rather die, than cause another person pain

Chorus:
That's why I'm not giving up yet, no I'm not giving up yet

Verse:
Because we're capable of so much more, than the statistics on the news
If we don't wanna fight any more, then it's up to us to choose

Chorus:
That's why I'm not giving up yet, no I'm not giving up yet

Bridge:
Hold, on to any truth that you find
It's so, hard these days to tell right from wrong and wrong from right

Chorus 2:
But I'm not giving up yet, no I'm not giving up just, yet
No I'm not giving up yet, no I'm not giving up yet

************************************

| /   slide up
| \   slide down
| h   hammer-on
| p   pull-off
| ~   vibrato
| <>   harmonic
| x   Mute note
| b   Bend
| pb  Pre-bend
| br  Bend release
| pbr Pre-bend release
| brb Bend release bend


************************************
Tap to rate this tab
 
# A B C D E F G H I J K L M N O P Q R S T U V W X Y Z