Song name
# A B C D E F G H I J K L M N O P Q R S T U V W X Y Z

Newton Faulkner - This Town tab

Tabbed by: Kirsty

Standard tuning

Play this for the intro and verses

e||---7---5---4---------4---2---0---------0---2---0---------0---2---4-|
B||---5---5---5---------5---4---2---------2---4---2---------2---4---5-|
G||-------------------------------------------------------------------| 
D||-------------------------------------------------------------------|
A||-------------------------------------0---0----0--------0----0------|
E||-0---0---0---------0---0----0----------------------------------0---|

Chorus
As the lights go down,she won't   leave this town  for me...
e||--------------0----------------------------0-----------------------|
B||--------0--0-------0------------------0--0-------------------------|
G||-----1----1-------------------------2---2-------2------------------|
D||----------------------------------2--------------------------------|
A||---2----------------------------0----------------------------------|
E||-0---------------------------------------------------------------=-|
Tap to rate this tab
 
# A B C D E F G H I J K L M N O P Q R S T U V W X Y Z