Song name
# A B C D E F G H I J K L M N O P Q R S T U V W X Y Z

Newton Faulkner - So Much tab

-------------------------------------------------------------------------------
			     So Much - Newton Faulkner
-------------------------------------------------------------------------------
Tabbed by: HEMA90
Email: hema90@msn.com

Tuning: Normal (eBGDAE)

Basically the entire song is based around this:
                                                          Left       Right
                                                          Hand:      Hand:
e|------3-2-0--------3-2-0---------3-2-0---------------|  1st + 5th  2nd
B|------3-3-3-3------3-3-3-3-------3-3-3-3-------------|  4th        1st
G|-----------------------------------------------------|
D|-----------------------------------------------------|
A|-----------------------------3-3-3-3-3----3-3-3-3----|  3rd        Thumb
E|--3-3-3-3-3----3-3-3-3-3-----------------------------|  3rd        Thumb



Keep playing the above, 2 times as intro, then lyrics come in:


e|------3-2-0--------3-2-0---------3-2-0---------------|  
B|------3-3-3-3------3-3-3-3-------3-3-3-3-------------|  
G|-----------------------------------------------------|
D|-----------------------------------------------------|
A|-----------------------------3-3-3-3-3----3-3-3-3----|
E|--3-3-3-3-3----3-3-3-3-3-----------------------------|

e|------3-2-0--------3-2-0---------3-2-0---------------|  
B|------3-3-3-3------3-3-3-3-------3-3-3-3-------------|  
G|-----------------------------------------------------|
D|-----------------------------------------------------|
A|-----------------------------3-3-3-3-3----3-3-3-3----|
E|--3-3-3-3-3----3-3-3-3-3-----------------------------|

       I Wish You      Could See Me         I'm Fly-ing      Still Don't Know
e|-----3--2---0--------3-----2---0----------3---2---0--------3-----2-----0---|  
B|-----3--3---3--------3-----3---3--3-------3---3---3--------3-----3-----3-3-|  
G|---------------------------------------------------------------------------|
D|---------------------------------------------------------------------------|
A|------------------------------------3--3--3---3---3--3--3--3-----3-----3---|
E|-3-3-3--3---3--3--3--3-----3---3-------------------------------------------|

   How I  Owe You      So Much I     Hope  You Knew That
e|-----3--2---0--------3--2----0-----------3---2----0--------3-----2-----0---|
B|-----3--3---3--------3--3----3--3--------3---3----3--------3-----3-----3-3-|
G|---------------------------------------------------------------------------|
D|---------------------------------------------------------------------------|
A|-----------------------------------3--3--3---3----3--3--3--3-----3-----3---|
E|-3-3-3--3---3--3--3--3--3----3---------------------------------------------|

etc.

In the chorus you can strum instead of picking, using the above positioning, but 
try to get the final pick on the third fret of the B string.

Have fun!
Tap to rate this tab
 
# A B C D E F G H I J K L M N O P Q R S T U V W X Y Z