Song name
# A B C D E F G H I J K L M N O P Q R S T U V W X Y Z

Newton Faulkner - Ufo tab

                                          Newton Faulkner - UFO
                                          (tabbed by mason12309)
 
I will work on the rest of the song, but most of it is pretty much this.
I did this by ear, and I think it's pretty accurate. Comment for any suggestions 
or improvements. Thanks.

h = hammer on
/ = slide up
\ = slide down

Drop D tuning.

       E|----------------------------------||
       B|----------------------0-------5/--||
Intro  G|--9h11--------------5---5---0-----|| x4
       D|--0-----0-x-x-x-0-----------------||
       A|--0-----0-x-x-x-0-----------------||
       D|--0-----0-x-x-x-0-3-------5-------||

E|------||-----------------||     E|------------|
B|------||-----------------||     B|------------|
G|------||-----------------||     G|------------|  (Back to intro part)
D|------||-----------------|| x6  D|------------|
A|--8\--||----5--7--8\-----||     A|--5--7--0---|
D|--7\--||----3--5--7\-----||     D|--3--5--0---|

Tap to rate this tab
# A B C D E F G H I J K L M N O P Q R S T U V W X Y Z