Song name
# A B C D E F G H I J K L M N O P Q R S T U V W X Y Z

Newton Faulkner - Longshot tab

Long Shot  Newton Faulkner
Great song off his new album "Write it on Your Skin"


Intro:
e|------------------------------------------------------------------------|
B|------------------------------------------------------------------------|
G|------2------2-----2-----2-----2----2----2----2-------------------------|
D|---0-----0------0-----0-----0----0----0----0----------------------------|  
A|------------------------------------------------------------------------|
E|------------------------------------------------------------------------|

Verses:

e|------------------------------------------------------------------------|
B|------------------------------------------------------------------------|
G|------2------2-----2-----2-----2----2----2----2-------------------------|
D|---0-----0------0-----0-----0----0----0----0----------------------------|  
A|------------------------------------------------------------------------|
E|------------------------------------------------------------------------|


e|------------------------------------------------------------------------|
B|------------------------------------------------------------------------|
G|------------------------------------------------------------------------|
D|------0----0----0----0----0----0----0----0------------------------------|
A|------------------------------------------------------------------------|
E|---3----3----3----3----3----3----3----3---------------------------------|


Pre Chorus

e|------------------------------------------------------------------------|
B|------------------------------------------------------------------------|
G|------------------------------------------------------------------------|
D|------0----0----0----0----0----0----0----0------------------------------|  
A|---1----1----1----1----3----3----3----3---------------------------------|
E|------------------------------------------------------------------------|


e|------------------------------------------------------------------------|
B|------------------------------------------------------------------------|
G|------------------------------------------------------------------------|
D|------0----0----0----0----0----0----0----0------------------------------|
A|------------------------------------------------------------------------|
E|---3----3----3----3----3----3----3----3---------------------------------|


Chorus
Repeats,

e|------------------------------------------------------------------------|
B|------------------------------------------------------------------------|
G|--------------------0--------2----2----2----0---------------------------|
D|----3----3----3-----------0----0----0-----------------------------------|
A|--1----1----1----3-----------------------3------------------------------|
E|------------------------------------------------------------------------|

Bridge:



e|------------------------------------------------------------------------|
B|------------------------------------------------------------------------|
G|----------------------------------------------2---2---2---2---0--0--0--0|
D|------0----0----0----0----3----3----3----3--0---0---0---0---------------|
A|------------------------1----1----1----1--------------------3--3--3--3--|
E|---3----3----3----3-----------------------------------------------------|

(Verse)
It's all there underneath,
Everything we'll ever need,
You and I.
Look around and you will see,
Broken minds and shattered dreams,
Wasted time.
(Pre Chorus)
But I don't mind losing sleep,
Squeezing through the cracks between,
Day and Night.

[Chorus]
It's such a long shot,
Everything that we've got,
Just living on this rock,
Surrounded by the sea.
With our shoes off,
Balancing on rooftops,
You put your faith in preachers,
I put my faith in me.

(Verse)
Given time we could've seen,
All the things he could've been,
If he'd tried.
But he settled for the English dream,
Bathed in mediocrity,
Stood in line.
(Pre Chorus)
But that's not enough for me,
I will kick and I will scream,
Tell you why.

[Chorus]

(Bridge)
I don't wanna waste your time
I don't wanna waste your time 

[Chorus X2]
Tap to rate this tab
# A B C D E F G H I J K L M N O P Q R S T U V W X Y Z