Song name
# A B C D E F G H I J K L M N O P Q R S T U V W X Y Z

Newton Faulkner - Orange Skies tab

This is a accurate tab for orange skies from StudioZoo.

Tuning: 
G#
D#
A#
D#
F
D#

Key:
h = hammer on
s = slide
p = pull off
H above bar = harmonics
B = Bass thump 
T = Tap guitar for snare

Intro: 

G# |-x----x--x--x---x----x--x--x--|-x----x--x--x---x----x--x--x--| 
D# |-5----5--5--9---7----7--7--9--|-5----5--5--9---7----7--7--9--|
A# |-5----5--5--9---7----7--7--9--|-5----5--5--9---7----7--7--9--|
D# |-5----5--5--9---7----7--7--9--|-5----5--5--9---7----7--7--9--|
F  |-7----7--7--10--9----9--9--10-|-7----7--7--10--9----9--9--10-|
D# |-7----7--7--9---7----7--7--9--|-7----7--7--9---7----7--7--9--|

Verse:

G# |------------------------------|------------------------------|
D# |-5----5--5--9---7----7--7--9--|-5----5--5--9---7----7--7--9--|
A# |------------------------------|------------------------------|
D# |------------------------------|------------------------------|
F  |------------------------------|------------------------------|
D# |------------------------------|------------------------------|

G# |------------------------------|------------------------------|
D# |-5----5--5--9---7----7--7--9--|-5----5--5--9---0----0--0--0--|
A# |------------------------------|------------------------------|
D# |------------------------------|------------------------------|
F  |------------------------------|------------------------------|
D# |------------------------------|------------------------------|

Chorus: 

G# |------------4---2----------4--|------------4---2----------x--|
D# |------------------------------|---------------------------9--|
A# |-2----------------------------|-2-------------------------9--|
D# |-----------=4---2----------4--|-----------=4---2----------9--|         
F  |-3----------------------------|-3-------------------------10-|    
D# |------------------------------|---------------------------9--|

Verse 2:

G# |-x----x--x--x---x----x--x--x--|-x----x--x--x---x----x--x--x--| 
D# |-5----5--5--9---7----7--7--9--|-5----5--5--9---7----7--7--9--|
A# |-5----5--5--9---7----7--7--9--|-5----5--5--9---7----7--7--9--|
D# |-5----5--5--9---7----7--7--9--|-5----5--5--9---7----7--7--9--|
F  |-7----7--7--10--9----9--9--10-|-7----7--7--10--9----9--9--10-|
D# |-7----7--7--9---7----7--7--9--|-7----7--7--9---7----7--7--9--|

G# |-x----x--x--x---x----x--x--x--|-x----x--x--x-----|
D# |-5----5--5--9---7----7--7--9--|-5----5--5--9---0-|
A# |-5----5--5--9---7----7--7--9--|-5----5--5--9---0-|
D# |-5----5--5--9---7----7--7--9--|-5----5--5--9---0-|
F  |-7----7--7--10--9----9--9--10-|-7----7--7--10--2-|
D# |-7----7--7--9---7----7--7--9--|-7----7--7--9---0-|


Chorus 2:

G# |------------4---2----------4--|------------4---2----------4-|
D# |------------------------------|-----------------------------|
A# |-2----------------------------|-2---------------------------|
D# |------------4---2----------4--|-----------=4---2----------4-|         
F  |-3----------------------------|-3---------------------------|    
D# |------------------------------|-----------------------------|

G# |------------4---2----------4--|------------4---2----------x--|
D# |------------------------------|---------------------------9--|
A# |-2----------------------------|-2-------------------------9--|
D# |------------4---2----------4--|-----------=4---2----------9--|         
F  |-3----------------------------|-3-------------------------10-|    
D# |------------------------------|---------------------------9--|

Bridge:

G# |----------------------------------------------| 
D# |----------------------------------------------| 
A# |-14-10-10-10-10s12s10--0h4----2--0------------|
D# |--------------------------0---0--0------------|
F  |-14-10-10-10-10s12s10------5--3--2--2h3p2-2p0-|
D# |----------------------------------------------|

G# |----------------------------------------------| 
D# |----------------------------------------------| 
A# |-14-10-10-10-10s12s10--0h4----2--0------------|
D# |--------------------------0---0--0------------|
F  |-14-10-10-10-10s12s10------5--3--2--2--2--2---|
D# |----------------------------------------------|
 
              H            
G# |-------------------------------------|
D# |-------------------------------------|
A# |-14-10-10-------12--4--4--7--7--4--3-|
D# |--------------------0--0--0--0--0--0-|
F  |-14-10-10-12--12----5--5--7--7--5--3-|
D# |----------12-----------7--9--9--7--5-|

G# |----------------------------------------------| 
D# |----------------------------------------------| 
A# |-14-10-10-10-10s12s10--0h4----2--0------------|
D# |--------------------------0---0--0------------|
F  |-14-10-10-10-10s12s10------5--3--2--2--2--2---|
D# |----------------------------------------------|

After bridge
     B B T T B   B T  B B T T B   B T  B B T T B   B T  B B T T B   B T 
G# |-0--------------4-2--------------4-0--------------4-2--------------0-|
D# |---------------------------------------------------------------------|
A# |---------------------------------------------------------------------|
D# |---------------------------------------------------------------------|
F  |---------------------------------------------------------------------|
D# |---------------------------------------------------------------------|

     B B T T B   B T  B B T T B   B T  B B T T B   B T  B B T T B  T T T T 
G# |-0--------------4-2--------------4-0--------------4-2----------------|
D# |---------------------------------------------------------------------|
A# |---------------------------------------------------------------------|
D# |---------------------------------------------------------------------|
F  |---------------------------------------------------------------------|
D# |---------------------------------------------------------------------|

Verse 3:

G# |------------------------------|------------------------------|
D# |-5----5--5--9---7----7--7--9--|-5----5--5--9---7----7--7--9--|
A# |------------------------------|------------------------------|
D# |------------------------------|------------------------------|
F  |------------------------------|------------------------------|
D# |------------------------------|------------------------------|

G# |------------------------------|------------------------------|
D# |-5----5--5--9---7----7--7--9--|-5----5--5--9---0----0--0--0--|
A# |------------------------------|---------------------------0--|
D# |------------------------------|---------------------------0--|
F  |------------------------------|---------------------------2--|
D# |------------------------------|---------------------------0--|

Chorus 3: 

G# |------------4---2----------4--|------------4---2----------4-|
D# |------------------------------|-----------------------------|
A# |-2----------------------------|-2---------------------------|
D# |------------4---2----------4--|-----------=4---2----------4-|         
F  |-3----------------------------|-3---------------------------|    
D# |------------------------------|-----------------------------|

G# |------------4---2----------4--|------------4---2----------4-|
D# |------------------------------|-----------------------------|
A# |-2----------------------------|-2---------------------------|
D# |------------4---2----------4--|-----------=4---2----------4-|         
F  |-3----------------------------|-3---------------------------|    
D# |------------------------------|-----------------------------|

Outro:

G# |-0--------------4-2--------------4-0--------------4-2--------------0-|
D# |---------------------------------------------------------------------|
A# |---------------------------------------------------------------------|
D# |---------------------------------------------------------------------|
F  |---------------------------------------------------------------------|
D# |---------------------------------------------------------------------|

G# |-0--------------4-2--------------4-0--------------4-2--------------0-|
D# |---------------------------------------------------------------------|
A# |---------------------------------------------------------------------|
D# |---------------------------------------------------------------------|
F  |---------------------------------------------------------------------|
D# |---------------------------------------------------------------------|
Tap to rate this tab
# A B C D E F G H I J K L M N O P Q R S T U V W X Y Z