Song name
# A B C D E F G H I J K L M N O P Q R S T U V W X Y Z

Newton Faulkner - Dont Make Me Go There tab

-------------------------------------------------------------------------------
                    Don't make me go there - Newton Faulkner
-------------------------------------------------------------------------------

Tabbed by: Sean
E-mail: seankcap@Gmail.com

Tuning: standard tuning with (capo 3rd fret)

Wanted to learn this song but there were zilch tabs for it so I tabbed it out myself by ear. I 
couldn't find any videos of newton performing this so it was quite tricky transcribing but I think
I got this bang on. Anyway enjoy and rate.


 Intro
e|-----------------|-----------------|-----------------|---------------------|
B|-----------------|-----------------|-----------------|---------------------|
G|-------4---------|-------4---------|-------4---------|-------4-------------|
D|-----2-----------|-----2-----------|-----2-----------|-----2---------------|
A|---4-----4---4---|---4-----4---4---|---2-----2---2---|---2-----2---2-------|
E|-0---------0---0-|-0---------0---0-|-0---------0---0-|-0---------0---0-----|

e|-------0-------0-|-------0-------0-|-----------------|---------------------|
B|-----0-------0---|-----0-------0---|-------0---------|-------0-------------|
G|---6-------4-----|---2-------2-----|-----4-----------|-----4---------------| 2x whole intro
D|-7-------6-------|-4-------2-------|---2-----2---2---|---2-----2---2-------|
A|-----------------|-----------------|-4---------4---4-|-4---------4---4-----|
E|-----------------|-----------------|-----------------|---------------------|


 Verse
e|-----------------|-----------------|-----------------|---------------------|
B|-----------------|-----------------|-----------------|---------------------|
G|-------4---------|-------4---------|-------4---------|-------4-------------|
D|-----2-----------|-----2-----------|-----2-----------|-----2---------------|
A|---4-----4---4---|---4-----4---4---|---2-----2---2---|---2-----2---2-------|
E|-0---------0---0-|-0---------0---0-|-0---------0---0-|-0---------0---0-----|

e|-------0-------0-|-------0-------0-|-----------------|---------------------|
B|-----0-------0---|-----0-------0---|-------0---------|-------0-------------|
G|---6-------4-----|---2-------2-----|-----4-----------|-----4---------------| 2x whole verse
D|-7-------6-------|-4-------2-------|---2-----2---2---|---2-----2---2-------| 
A|-----------------|-----------------|-4---------4---4-|-4---------4---4-----|
E|-----------------|-----------------|-----------------|---------------------|

e|-----------------|
B|-------0---------|
G|-----4-----------| extra bar is played on the repeat heading into chorus
D|---2-----2---2---|
A|-4---------4---2-|
E|-----------------|


 Chorus
e|-----------------|-----------------|-----------------|---------------------|
B|-----0-----0-----|-------0---------|-------0---------|-------0-------------|
G|---6-----4-----2-|-----4-----------|-----4-----------|-----4---------------|
D|-7-----6-----4---|---2-----2---2---|---2-----2---2---|---2-----2---2-------|
A|-----------------|-4---------4---4-|-4---------4---4-|-4---------4---2-----|
E|-----------------|-----------------|-----------------|---------------------|

e|-----------------|-----------------|-----------------|---------------------|
B|-----0-----0-----|-----------------|-----------------|---------------------|
G|---6-----4-----2-|-------4---------|-------4---------|-------4-------------|
D|-7-----6-----4---|-----6-----------|-----6-----------|-----6---------------|
A|-----------------|---2-----2---2---|---2-----2---2---|---2-----2---2-------|
E|-----------------|-0---------0---0-|-0---------0---0-|-0---------0---0-----|


e|-----------------|-----------------|-----------------|---------------------|
B|-----0-----0-----|-------0---------|-------0---------|-------0-------------|
G|---6-----4-----2-|-----4-----------|-----4-----------|-----4---------------|
D|-7-----6-----4---|---2-----2---2---|---2-----2---2---|---2-----2---2-------|
A|-----------------|-4---------4---4-|-4---------4---4-|-4---------4---2-----|
E|-----------------|-----------------|-----------------|---------------------|

e|-----------------|-----------------|-----------------|
B|-----0-----0-----|-----------------|-----------------|
G|---6-----4-----2-|-------4---------|-------4---------|
D|-7-----6-----4---|-----6-----------|-----6-----------|
A|-----------------|---2-----2---2---|---2-----2---2---|
E|-----------------|-0---------0---0-|-0---------0---0-|


2nd verse - exact same as verse 

2nd chorus - exact same as chorus 



 Bridge (strange chords but this is definitely what it is)

e|-----------------|-----------------|-----------------|-------0-------------|
B|-------2---------|-------0---------|-------2---------|---------------------|
G|-----2---2-------|-----2---2-------|-----2---2-------|-----4---4-----------|
D|---2-------2---2-|---3-------3---2-|---2-------2---2-|---2-------2---2-----|
A|-4-----------4---|-4-----------4---|-----------------|---------------------|
E|-----------------|-----------------|-1-----------1---|-1-----------1-------|

e|-----------------|-----------------|-----------------|---------------------|
B|-------3---------|-------0---------|-------0---------|-------0-------------|
G|-----2---2-------|-----4---4-------|-----4---4-------|-----4---4-----------|
D|---2-------2---2-|---3-------3---3-|---4-------4---4-|---5-------5---5-----|
A|-5-----------5---|-----------------|-----------------|---------------------|
E|-----------------|-1-----------1---|-2-----------2---|-3-----------3-------|
                                                     
e|-----------------|-------0-------5-|(5)------5-3-2---|-2-------------------|
B|-------0---------|-----------------|---------------5-|---------------------|
G|-----4---4-------|-----4-------4---|-----------------|-------4-------------| last bar is start of 
D|---5-------5---5-|---5-------5---5-|(5)------------- |-----2---------------| next verse
A|-----------------|-----------------|-----------------|---4-----4---4-------|
E|-3-----------3---|-3-------3-------|-----------------|-0---------0---0-----|
                                                       (bar across the 2nd)
                                                       (fret to sustain note)

3rd verse - exact same as previous verses

 
Last chorus
e|-----------------|-----------------|-----------------|---------------------|
B|-----0-----0-----|-------0---------|-------0---------|-------0-------------|
G|---6-----4-----2-|-----4-----------|-----4-----------|-----4---------------|
D|-7-----6-----4---|---2-----2---2---|---2-----2---2---|---2-----2---2-------|
A|-----------------|-4---------4---4-|-4---------4---4-|-4---------4---2-----|
E|-----------------|-----------------|-----------------|---------------------|

e|-----------------|-----------------|-----------------|---------------------|
B|-----0-----0-----|-----------------|-----------------|---------------------|
G|---6-----4-----2-|-------4---------|-------4---------|-------4-------------|
D|-7-----6-----4---|-----6-----------|-----6-----------|-----6---------------|
A|-----------------|---2-----2---2---|---2-----2---2---|---2-----2---2-------|
E|-----------------|-0---------0---0-|-0---------0---0-|-0---------0---0-----|

e|-----------------|-----------------|-----------------|---------------------|
B|-----0-----0-----|-------0---------|-------0---------|-------0-------------|
G|---6-----4-----2-|-----4-----------|-----4-----------|-----4---------------|
D|-7-----6-----4---|---2-----2---2---|---2-----2---2---|---2-----2---2-------|
A|-----------------|-4---------4---4-|-4---------4---4-|-4---------4---2-----|
E|-----------------|-----------------|-----------------|---------------------|

e|-----------------|-----------------|
B|-----0----0----0-|-----------------|
G|---6----------2--|----4------------|
D|-7-----6-----4---|---6---let ring--|
A|-----------------|--2--------------|
E|-----------------|-0---------------|
   (slows down)
Tap to rate this tab
# A B C D E F G H I J K L M N O P Q R S T U V W X Y Z