Song name
# A B C D E F G H I J K L M N O P Q R S T U V W X Y Z

Newton Faulkner - To The Light tab

-------------------------------------------------------------------------------
			     To The Light - Newton Faulkner
-------------------------------------------------------------------------------
Tabbed by:slurms
Email:slurms.mckenzie@hotmail.com

Tuning:EbAbDbGbBbEb


Intro/Verse
eb|----------------------------|------------------------------------------------|
Bb|----------------------------|------------------------------------------------|
Gb|-\13---11~--9--5h7-7-7-7-6--|-Very-Basic-Version(A-lot-of-extra-notes-added)-| 
Db|----------------------------|------------------------------------------------|
Ab|---------------0------------|-x8---------------------------------------------|
Eb|---0----0---0------0-0-0-0--|------------------------------------------------|


Chorus - Take A Break From What I Know...
eb|--0-0-0-0-0-0-0-0--5-5-5-5-5-5-5-5--5-5-5-5-5-5-5-5--0-0-0-0-0-0-0-0--|----|
Bb|--2-2-2-2-2-2-2-2--5-5-5-5-5-5-5-5--5-5-5-5-5-5-5-5--2-2-2-2-2-2-2-2--|----|
Gb|--2-2-2-2-2-2-2-2--7-7-7-7-7-7-7-7--7-7-7-7-7-7-7-7--2-2-2-2-2-2-2-2--|----|
Db|--2-2-2-2-2-2-2-2--7-7-7-7-7-7-7-7--7-7-7-7-7-7-7-7--2-2-2-2-2-2-2-2--|-x2-|
Ab|--0-0-0-0-0-0-0-0--5-5-5-5-5-5-5-5--5-5-5-5-5-5-5-5--0-0-0-0-0-0-0-0--|----|
Eb|----------------------------------------------------------------------|----|


Verse
eb|----------------------------|----|
Bb|----------------------------|----|
Gb|-\13---11~--9--5h7-7-7-7-6--|----| 
Db|----------------------------|-x6-|
Ab|---------------0------------|----|
Eb|---0----0---0------0-0-0-0--|----|


Chorus - Take A Break From What I Know...
eb|--0-0-0-0-0-0-0-0--5-5-5-5-5-5-5-5--5-5-5-5-5-5-5-5--0-0-0-0-0-0-0-0--|----|
Bb|--2-2-2-2-2-2-2-2--5-5-5-5-5-5-5-5--5-5-5-5-5-5-5-5--2-2-2-2-2-2-2-2--|----|
Gb|--2-2-2-2-2-2-2-2--7-7-7-7-7-7-7-7--7-7-7-7-7-7-7-7--2-2-2-2-2-2-2-2--|----|
Db|--2-2-2-2-2-2-2-2--7-7-7-7-7-7-7-7--7-7-7-7-7-7-7-7--2-2-2-2-2-2-2-2--|-x4-|
Ab|--0-0-0-0-0-0-0-0--5-5-5-5-5-5-5-5--5-5-5-5-5-5-5-5--0-0-0-0-0-0-0-0--|----|
Eb|----------------------------------------------------------------------|----|


Interlude - No Lyrics
eb|-------------------|---------------------|----|
Bb|-------------------|---------------------|----|
Gb|-7/9--9-9---11--9--|--5/7---7-7---9---7--|----|
Db|---x--x-x---x---x--|----x---x-x---x---x--|----|
Ab|-5/7--7-7---9---7--|--3/5---5-5---7---5--|-x6-|
Eb|---0--0-0---0---0--|----0---0-0---0---0--|----|


Chorus - Take A Break From What I Know...
eb|--0-0-0-0-0-0-0-0--5-5-5-5-5-5-5-5--5-5-5-5-5-5-5-5--0-0-0-0-0-0-0-0--|--------|
Bb|--2-2-2-2-2-2-2-2--5-5-5-5-5-5-5-5--5-5-5-5-5-5-5-5--2-2-2-2-2-2-2-2--|--------|
Gb|--2-2-2-2-2-2-2-2--7-7-7-7-7-7-7-7--7-7-7-7-7-7-7-7--2-2-2-2-2-2-2-2--|-repeat-|
Db|--2-2-2-2-2-2-2-2--7-7-7-7-7-7-7-7--7-7-7-7-7-7-7-7--2-2-2-2-2-2-2-2--|--till--|
Ab|--0-0-0-0-0-0-0-0--5-5-5-5-5-5-5-5--5-5-5-5-5-5-5-5--0-0-0-0-0-0-0-0--|--end---|
Eb|----------------------------------------------------------------------|--------|




| /  slide up
| \  slide down
| h  hammer-on
| p  pull-off
| ~  vibrato
| +  harmonic
| x  Mute note
===============================================================================
Tap to rate this tab
# A B C D E F G H I J K L M N O P Q R S T U V W X Y Z