Song name
# A B C D E F G H I J K L M N O P Q R S T U V W X Y Z

Newton - Streamline tab

This is the intro of the song streamline by Newton.

e-16-16----16----16----15----15----15----|
B-------18----18----18----16----16----16-|
G----------------------------------------|
D----------------------------------------|
A----------------------------------------|
E----------------------------------------|

e----------------------------------------|
B-13-13-13-16-13-16-13-18-18-16-18-16-18-|
G----------------------------------------|
D----------------------------------------|
A----------------------------------------|
E----------------------------------------|

e-16-16----16----16----15----15----15----|
B-------18----18----18----16----16----16-|
G----------------------------------------|
D----------------------------------------|
A----------------------------------------|
E----------------------------------------|

e-18-18----18----18----20-20-18-20-18-20-|
B-------16----16----16-------------------|
G----------------------------------------|
D----------------------------------------|
A----------------------------------------|
E----------------------------------------|

It sounds right to me so enjoy.

Tab by Matt Coffill
Tap to rate this tab
# A B C D E F G H I J K L M N O P Q R S T U V W X Y Z