Song name
# A B C D E F G H I J K L M N O P Q R S T U V W X Y Z

Newton - Streamline tab

Did this by ear. Sounds pretty darn good to me.
Hope you enjoy. :D
~BRMM


e|-4-4-4-4-3--3--3------------------------------|
B|----6-6-6-4---4-4-1-1-1-4-1-4-1-6-6--4--6-4-6-|
G|----------------------------------------------|
D|----------------------------------------------|
A|----------------------------------------------|
E|----------------------------------------------|

e|-4-4-4-4-3--3--3--6-6-6-6-8--8--8--|
B|----6-6-6-4---4-4----8-8-8-9---9-9-|
G|-----------------------------------|
D|-----------------------------------|
A|-----------------------------------|
E|-----------------------------------|
Tap to rate this tab
 
# A B C D E F G H I J K L M N O P Q R S T U V W X Y Z