Song name
# A B C D E F G H I J K L M N O P Q R S T U V W X Y Z

Newtral Fury - Interrogation tab

Artist: Newtral Fury
Song: Interrogation
Album: Contain Every Reason
Year: 2002

Standard Tuning (E, B, G, D, A, E)

Add a chorus + reverb effect

Intro/Verse
E|----------------|
B|----------------|
G|----------------|
D|2-2-2-2-2-2-2-2-| x12
A|-4-4-4-4-0-0-0-0|
E|----------------|
Bass comes in after 6 times

[* = x8]

Chorus (Distorted) (Drop chorus effect)
E|---------------------------------|
B|---------------------------------|
G|---------------------------------|
D|-11*-7*-4-11*-14-14-14-14-9-9-9-9| x4
A|-11*-7*-6-11*-14-14-14-14-9-9-9-9|
E|-9*--5*-6-9*--12-12-12-12-7-7-7-7|

Intro/Verse (Add chorus effect)
E|----------------|
B|----------------|
G|----------------|
D|2-2-2-2-2-2-2-2-| x12
A|-4-4-4-4-0-0-0-0|
E|----------------|

Solo
E|-----------------------------------|
B|-----------------------------------|
G|-----9/h10-10-10------9/h10-10-10-9| x8
D|-7-7------7-7----------------------|
A|----0---------0--------------------|
E|-----------------------------------|

Chorus (Distorted)
E|---------------------------------|
B|---------------------------------|
G|---------------------------------|
D|-11*-7*-4-11*-14-14-14-14-9-9-9-9| x8
A|-11*-7*-6-11*-14-14-14-14-9-9-9-9|
E|-9*--5*-6-9*--12-12-12-12-7-7-7-7|

Intro/Verse
E|----------------|
B|----------------|
G|----------------|
D|2-2-2-2-2-2-2-2-| x4
A|-4-4-4-4-0-0-0-0|
E|----------------|
On 4th time through, add tremlo effect and let the last note ring)

Tabbed by: Zein124 [Lead Guitarist]
darkmessanger36@hotmail.com
Any questions/comments send me a message
Tap to rate this tab
 
# A B C D E F G H I J K L M N O P Q R S T U V W X Y Z