Song name
# A B C D E F G H I J K L M N O P Q R S T U V W X Y Z

Nfocus - Gidawat Ko Ang Tanan tab

Gidawat Ko ang Tanan Intro:
Arranged by Warren Batuto
/: means slide 

E|-------------------------------------------------------|
B|-------------5------------5----------------------------|
G|-2--4--6--6-----6---4---4---4---4---6---4--2---4/6--4--|
D|-------------------------------------------------------|
A|-------------------------------------------------------|
e|-------------------------------------------------------|


E|--------------------------------------------------------0|
B|-------------5------------5-----------------------------0|
G|-2--4--6--6-----6---4---4---4---4---6---4--2---4/6--4---4|
D|---------------------------------------------------------|
A|---------------------------------------------------------|
e|---------------------------------------------------------|


paki rate nalang po 
add nyo ako sa facebook.com/warrenbatuto
Tap to rate this tab
# A B C D E F G H I J K L M N O P Q R S T U V W X Y Z