Song name
# A B C D E F G H I J K L M N O P Q R S T U V W X Y Z

Ngayong Gabi - Jeans tab

     Title:Ngayong Gabi
        by:Jeans
 Tabbed by:Aztecs
    Tuning:ebgdae

 Chords:
  A2-x02200               v-vibrate
   B-x24422               b-bend
   E-022100             ( )-bend by half
 F#m-244222               /-slide
                          h-hammer
                          p-pull-off

 Yung chords nga pala ng stanza ay E-A2(3x) F#m-A2 tapos yung sa
 chorus E-A2(3x) F#m-A2-F#m-B tapos yung sa adlib nito inilagay
 ko na tapos yung sa coda naman E-A2(3x) F#m-B Mabagal lang ang
 strumming nito sa buong kanta maganda talaga itong kanta ng jeans

 Ngayong Gabi solo tab

 Solo:

 E                  B                    E          A2
|--------------7------------------|------------7v---11b---------------------|
|--10-9---9----7------------------|--4---4v-------9-----9---(7)-(7)---------|
|-------9---9--------------9-8h9--|----5----5-------------9---------9-6v----|
|---------------------------------|-----------------------------------------|
|---------------------------------|-----------------------------------------|
|---------------------------------|-----------------------------------------|
     E                        A2                          E
|---------9-------------------7--------------------------|----------7---9b--|
|----9--9---9-7-----------(7)---9.-9.-(9)-9.-9.-7b-------|----7.-7.---7-----|
|--9-9----------9.-9.-6-9--------------------------9-6v--|--9---------------|
|--9-----------------------------------------------------|------------------|
|--------------------------------------------------------|------------------|
|--------------------------------------------------------|------------------|
               A2                           F#m
|--9-14b-12-11h12p11--------9b--|--12---------------------------------------|
|--------------------12---------|--12-14----12------------------------------|
|-----------------------11------|--------13-----13----11--------------------|
|-------------------------------|------------------14-----14----11----------|
|-------------------------------|----------------------------14----14-11v---|
|-------------------------------|-------------------------------------------|
 B
|------------------------------------------9h12/14--16b---------------------|
|---------------------------9h12------9h12----------------------------------|
|------------9h11------9h11------9h11---------------------------------------|
|-------9h11------9h11------------------------------------------------------|
|--9h11---------------------------------------------------------------------|
|---------------------------------------------------------------------------|
 mahina lang dito

 Yung may mga tuldok pareho lang ang gagawin n'yo pakinggan n'yo na
 lang para makuha n'yo tapos yung solo naman timingan n'yo na lang
 tapos yung lyrics nito hanapin n'yo na lang sa yahoo.com


 http://www.emimusic.ph/jeans
Tap to rate this tab
 
# A B C D E F G H I J K L M N O P Q R S T U V W X Y Z