Song name
# A B C D E F G H I J K L M N O P Q R S T U V W X Y Z

Niccolo Fabi - Ecco tab

Il pezzo è in Sib Maggiore, per suonare l'arpeggio come l'ho trascritto io
è quindi necessario mettere un bloccacorde al primo capotasto.
La tablatura si riferisce alle posizioni con il bloccacorde.
L'arpeggio non è semplice, e nel pezzo originale ci sono 2 chitarre sovraincise.

Questa è la mia versione... se ci sono errori, o si puo migliorare/semplificare 
mandatemi una mail ;)

Arpeggio iniziale:

Attenti al ritmo! è basicamente anche lo stesso giro della strofa ed è identico al finale.

Sibsus9

-----------------|
-----2-------4---|
---4---4-------2-|
-----------2-----|
-0-------0-------|
-----------------|

Sol#-11 (come sopra, ma il basso ora è un Sol, è buona idea fare un barre)

-----------------|
-----2-------4---|
---4---4-------2-|
-----------2-----|
-----------------|
-2-------2-------|

Fa/La (qui ci vuole un po' di manualità ;)

-----------------|
-----5-------5---|
---4---4-------4-|
-----------2-----|
-----------------|
-4-------4-------|

Do#-9 (qui il ritmo cambia, ascoltare il disco, obbligatorio il barrè ;)

-----9-----------|-----9-------4-5-|
----7-7----------|----7-7------2-2-|
---7---7---------|---7---7---2-----|
-----------7---7-|---------0-------|
---------5---9---|-----------------|
-7---------------|-7---------------|

Sibsus9

-----------------|
-----2-------4---|
---4---4-------2-|
-----------2-----|
-0-------0-------|
-----------------|

Ritornello (distorto):

Sol- Sib [Mib9 Mib9/6]
Sol- Sib [Mib9 Mib9/6] Do-
Sol- Sib [Mib9 Mib9/6] Do- [Sib9 Sib]

Strumentale e secondo ritornello, ripetere:
Sol- Sib [Mib9 Mib9/6] Do-

Chiude con un Sol-

La parte [Mib9 Mib9/6] si suona così, ascoltare il disco:

-0---0-|
-3---3-|
-2-h-4-|
-0---0-|
-------|
-------|

Sibsus9:

-0-|
-2-|
-4-|
-2-|
-0-|
---|

-----------------------------------------------------------------
 Carlo Gatta (ex Gommeverdi ;) carlo (PUNTO) gatta (AT) gmail (PUNTO) com
-----------------------------------------------------------------
Tap to rate this tab
# A B C D E F G H I J K L M N O P Q R S T U V W X Y Z