Song name
# A B C D E F G H I J K L M N O P Q R S T U V W X Y Z

Nicho Hinojosa - Todo A Pulmon tab

Esta cancion esta muy buena i am va dedicada a todas las personas q siempre luchan y 
lo q quieren ok bye cuidence


alAn (alan_metallica_666@hotmail.com)

INTRO
e|-------------------|----------------|-----------|
B|-------------------|---2-1h2p1--1---|-1p0-------|
G|-----1-1-2-1h2p1---|---2--------2---|-----2-----|
D|-2h4-2-2-2-------2-|----------2-----|-------2---|
A|-------------------|-2--------------|-----------|
E|-------------------|----------------|---------0-|

-----0---0---0-0-|----0-------|
---0---2---4---0-|0-----------|
-1-----2---4---1-|--1---1--2~-|
-----------------|---------2~-|
-----------------|------------|
-----------------|------------|

     e----------------------------------------|
     B-----------0-------------------2--------|
     G-----------1------------------------2---|
     D------2---------2---------2-------------|
     A---------------------0------------------|
     E-0--------------------------------------|
       Que difícil se me hace,

     e----------------0--------------------------|
     B-----------0------------------------2------|
     G------1--------------1--------------2------|
     D-------------------------------2---------2-|
     A--------------------------0----------------|
     E-0-----------------------------------------|
       Mantenerme en este viaje,

     e-----------------------------------------------|
     B-----------0-------------------5-------------2-|
     G-----------1-------------------4----------4----|
     D------2---------2---------6---------6----------|
     A---------------------4-------------------------|
     E-0-------------------------------------2-------|
       Sin saber a dónde voy en realidad
     -------------2---|
     -------2-----2---|
     -4-----3-----3---|
     ----4--4--4----4-|
     -----------------|
     -----------------|
       .

     e---------0-------------0-------------0-----|
     B-------2---2---------1---1---------0---0---|
     G-----2-------2-----2-------2-----1-------1-|
     D---2---------2---2---------2---2---------2-|
     A-0-----------0-0-----------0-------------2-|
     E-----------------------------0-------------|
        Si es de ida o de vuelta, Si el furgón es la primera
     --------4-----|
     ------5---5---|
     ----4-------4-|
     --6---------6-|
     4-----------4-|
     --------------|

       ,
       F#m                B7          A E
       Si volver es una forma de llegar.

     e---------0-0-0-----------0-0-0-|
     B---------0-0-0-----------2-2-2-|
     G---------1-1-1-----------2-2-2-|
     D------2--2-2-2--------2--2-2-2-|
     A---------2-2-2---0-------0-0-0-|
     E-0-----------------------------|
       Que difícil se me hace,

     e-------0-0-0-----------0-0-0-|
     B-------0-0-0-----------2-2-2-|
     G-------1-1-1-----------2-2-2-|
     D----2--2-2-2--------2--2-2-2-|
     A-------2-2-2---0-------0-0-0-|
     E-0---------------------------|
       Cargar todo este equipaje,

     e-----0-0-0-----4-4-4---2-2-2-2------2-2-2-2-|
     B-----0-0-0-----5-5-5---2-2-2-2------2-2-2-2-|
     G-----1-1-1-----4-4-4-4-4-4-4-4----3-3-3-3-3-|
     D---2-2-2-2---6-6-6-6-4-4-4-4-4---4--4-4-4-4-|
     A-----2-2-2-4---------4-4-4-4-4--4---4-4-4-4-|
     E-0-------------------2---------2------------|
       Se asegura la subida al caminar.

              A         Am
     Esta realidad tirana,
            E            C#m7
     Que se ríe a carcajadas,
     F#m                B7            A E
     Porque espera que me canse de buscar.

     CORO

             E         E7
     Cada nota, cada idea,
           A          Am
     cada paso en mi carrera,
             E          E7          B7 B7sus4
     y la estrofa de mi última canción,

             E          E7
     Cada fecha postergada,
             A         Am
     la salida y la llegada,

     e---------------------------0-----------0-|
     B-------------0---------2-----------1-1---|
     G---------1---------2-----2-------2-------|
     D-----2-----2-----2---2---------2---------|
     A---2---2-------0-------------0-----------|
     E-0---------------------------------------|
      y el oxígeno de mi respiración
     --------------0-----|
     1---------1-1---1---|
     --2-----2---------2-|
     ------2-------------|
     ----0---------------|
     --------------------|


     e---------0-------2~------------------|
     B-------0---0----4~-------------------|
     G-----1---------2~----------------1-2-|
     D---2----------4~---------------2-----|
     A-------------2~----------------------|
     E-0---------------------------0-------|
      Todo a pulmón....todo a pulmón.
     ------0-------0---------------0-----|
     0-----------0---0---0-------2---2---|
     --1-------1-------1-------2-------2-|
     ----2---2---------------2-----------|
     ----------------------0-------------|
     ------------------------------------|


     e---------0-------------0-------0---0-----|
     B-------1---1---------0---0---2---4---4---|
     G-----2-------2-----1-------1-2---4-----4-|
     D---2-------------2-----------------------|
     A-0---------------------------------------|
     E---------------0-------------------------|

     --------------0-----0-0-0-0-|
     -------------0------2-2-2-2-|
     -----1------1h2p1---2-------|
     ---2---2---2------2-2-------|
     ----------2---------0-------|
     -0-------0------------------|

     e---------0-0-0-----------0-0-0-|
     B---------0-0-0-----------2-2-2-|
     G---------1-1-1-----------2-2-2-|
     D------2--2-2-2--------2--2-2-2-|
     A---------2-2-2---0-------0-0-0-|
     E-0-----------------------------|
     Que difícil se me hace,

     e-------0-0-0-----------0-0-0-|
     B-------0-0-0-----------2-2-2-|
     G-------1-1-1-----------2-2-2-|
     D----2--2-2-2--------2--2-2-2-|
     A-------2-2-2---0-------0-0-0-|
     E-0---------------------------|
     Mantenerme con coraje,

     e-----0-0-0-----4-4-4---2-2-2-2------2-2-2-2-|
     B-----0-0-0-----5-5-5---2-2-2-2------2-2-2-2-|
     G-----1-1-1-----4-4-4-4-4-4-4-4----3-3-3-3-3-|
     D---2-2-2-2---6-6-6-6-4-4-4-4-4---4--4-4-4-4-|
     A-----2-2-2-4---------4-4-4-4-4--4---4-4-4-4-|
     E-0-------------------2---------2------------|
     Lejos de la transa y la prostitución.

             A         Am
     Defender mi ideología,
             E         C#m7
     Buena o mala pero mía,
     F#m             B7           A  E
     Tan humana como la contradicción.

     E                  A
     Que difícil se me hace,
     E                  A
     Seguir pagando el peaje,
            E        C#m7          F#
     De esta ruta de lujuria y ambición.
             A         Am
     Un amigo en la carrera,
             E          C#m7
     Una luz y una escalera,
     F#m             B7             A  E
     Y la fuerza de hacer todo a pulmón.

     CORO

     ACORDES ESPECIALES

              eBGDAE
     F#sus4 – 244422
     B7sus4 - 224252
Tap to rate this tab
# A B C D E F G H I J K L M N O P Q R S T U V W X Y Z