Song name
# A B C D E F G H I J K L M N O P Q R S T U V W X Y Z

Nicho Hinojosa - Tomame O Dejame tab

bueno  esta cancion tiene una muy buena letra asi q aki esta

Rubí TQM !!!! alan


Intro
e-------0h2p0--------0-------------------2-----------------------|
B-----3-------3-----2--2-----3-------2h3---3-------2p0---0-----0-|
G---2-----------2--2-----2---------4-------------2-----2---0-----|
D-0---------------2--------------4-------------2-------------0---|
A--------------------------0---2-------------0-------------------|
E--------------------------------------------------------3-------|

e-------0-2-----0h2p0-----------------0-------|
B-2---3-2-3-3---------3---------2-------2---2-|
G-2---4-------2---------2-----2---2-------2---|
D---------------------------2-------2---------|
A---0---------------------0-------------------|
E---------------------------------------------|

e-----2---0-0-----0-------------0----------------------------------|
B-----3---2---3---------2---0---0-----3-------2------3---3-----3-0-|
G---2---2-------2-------2---2-------0---0---2---2----2---2---2-2-2-|
D-0-------------------2---2---2--------------------0---------------|
A-------------------0---------------------0------------4---2-------|
E---------------------------------3--------------------------------|
Tómame              o déjame,     pero no me pidas que te crea más

e---------------------------------2-------------------------------------0------|
B--------------3--------2-------3-----3-----3-0-------------0-----0------------|
G-----------0-----0---2---2---2-------2---2-2-2----------0-----0-----0-----0---|
D---------------------------0--------------------------------------------------|
A-------------------0---------------4---2--------------------------------------|
E--------3--------------------------------------------3------------------------|
Cuando llegas tarde a casa no tienes porqué inventar Pues tu ropa huele a leña

e-------------0---|
B-----2---3---2---|
G-----2---4-----2-|
D---2---2---0-----|
A-0---------------|
E-----------------|
de otro hogar.


e-----2-------0-0-0-0-0------0-0-0-0--------0-0-0-0-----0-------0--------------------|
B-----3------3--3-3-3-3------2-2-2-2----0---2-2-2-2-----3-------2------3---3-----3-0-|
G---2---2---2---2-2-2-2------2-2-2-2---2----2-2-2-2---0---0---2---2----2---2---2-2-2-|
D-0--------0----0-0-0-0----2-2-2-2-2--2---2-2-2-2-2------------------0---------------|
A---------0-----0-0-0-0--0---0-0-0-0-0------0-0-0-0---------0------------4---2-------|
E---------------------------------3-----------------3--------------------------------|
Tómame                   o déjame, si no estoy despierto, déjame soñar

e-----0--------0-----------------2-2-----0-------0---2-2-2-2-0-0-0-0-0-0-|
B-----3--------2------3--3-----3---3-----3-------2---3-3-3-3-2-2-2-2-2-2-|
G---0---0----2---0----2--2---4-----4---0---0---2---2-2-2-2-2-2-2-2-2-2-2-|
D-------------------0------4-------4-----------------0-0-0-0-2-2-2-2-2-2-|
A----------0------------4----------2---------0-------0-0-0-0-0-0-0-0-0-0-|
E-3----------------------------------3-----------------------------------|
No me bese en la frente sabes que te oí llegar Y tu beso sabe a culpabilidad.


D          A           Bm
Tu me admiras porque callo y miro al cielo
G     E       A        Asus4
Porque no me ves llorar.
D           A           Bm
Y te sientes cada día más pequeña
G           A
Y esquivas mi mirada en tu mirar

e-------0h2p0--------0-------------------2-----------------------|
B-----3-------3-----2--2-----3-------2h3---3-------2p0---0-----0-|
G---2-----------2--2-----2---------4-------------2-----2---0-----|
D-0---------------2--------------4-------------2-------------0---|
A--------------------------0---2-------------0-------------------|
E--------------------------------------------------------3-------|

e-------0-2-----0h2p0-----------0-|
B-2---3-2-3-3---------3---2---3-2-|
G-2---4-------2---------2-2---4---|
D---------------------------------|
A---0-----------------------0-----|
E---------------------------------|

e-----2------0-0-0-0-0-----------0-0-0-0-----0-------0--------------------|
B-----3-----3--3-3-3-3-----2---0-0-0-0-0-----3-------2------3---3-----3-0-|
G---2---2--2---2-2-2-2-----2---2-2-2-2-2---0---0---2---2----2---2---2-2-2-|
D-0-------0----0-0-0-0---2---2---2-2-2-2------------------0---------------|
A----------------------0-------------------------0------------4---2-------|
E----------------------------------------3--------------------------------|
Tómame                  o déjame,        ni te espío ni te quito libertad

e--------0--------0-----------------2-2-----0-------0---2-2-2-2-0-0-0-0-0-0-|
B--------3--------2------3--3-----3---3-----3-------2---3-3-3-3-2-2-2-2-2-2-|
G------0---0----2---0----2--2---4-----4---0---0---2---2-2-2-2-2-2-2-2-2-2-2-|
D----------------------0------4-------4-----------------0-0-0-0-2-2-2-2-2-2-|
A-------------0------------4----------2---------0-------0-0-0-0-0-0-0-0-0-0-|
E----3----------------------------------3-----------------------------------|
Pero si dejas el nido, si me vas a abandonar Hazlo antes de que empiece a clarear.

D          A           Bm
Tu me admiras porque callo y miro al cielo
G           E     A     Asus4
Porque no me ves llorar.
D           A           Bm
Y te sientes cada día más pequeña
G           A
Y esquivas mi mirada en tu mirar

e----2-2---------|
B----3-3-------2-|
G--2-2-2-----2---|
D-0--0-0---2-----|
A--------0-------|
E----------------|

e-----2---0-0-----0-------------0-0-0-----0----------------------------|
B-----3---2---3---------2---0---0-0-0-----3-------2------3---3-----3-0-|
G---2---2-------2-------2---2---2-2-2---0---0---2---2----2---2---2-2-2-|
D-0-------------------2---2---2-2-2-2------------------0---------------|
A-------------------0-------------------------0------------4---2-------|
E-------------------------------------3--------------------------------|
Tómame              o déjame,         y si vuelves trae contigo la verdad

e----------------------------------------------------------------0-|
B--------------3--------2-----3---3-----3-0-------------0-------2--|
G-----------0-----0---2---2---2---2---2-2-2----------0-----0---2---|
D---------------------------0---------------------------------2----|
A-------------------0-----------4---2------------------------0-----|
E--------3----------------------------------------3----------------|
Trae erguida la mirada, trae contigo mi rival Y si es mejor que yo, podré entonces
D   Bm7   D F#m/D G A Bm/E A* D
llorar.

Asus4  002230
F#m/D  244232
Bm/E   XX4430
A*     X77650
Tap to rate this tab
# A B C D E F G H I J K L M N O P Q R S T U V W X Y Z