Song name
# A B C D E F G H I J K L M N O P Q R S T U V W X Y Z

Nicho Hinojosa - Quien Te Cantare tab

F#m
e------------------------------2-----2-----|
B------2-----2-----------2-------2-----2---|
G--------2-----2-----------2---------------|
D--2H4-----4-----4---2H4-----4-----4-----4-|
A------------------------------------------|
E-2-----------------2----------------------|

   F#m       Bm	      E	    A     D	               C#
e------------2---------------0------------2-0-0----2-4-2-1-4--2-4-4-|
B-----2-----2-2---3-2-3-----0-0---2-3-5---3-3-3---0------0---0----5-|
G----2-2---2---2--------2--1---1--2-4-6--2-2-2-2--------------------|
D---4---4-2-----------------------------0---------------------------|
A---------------2----------------0---------------0------------------|
E-2-----------------------0-----------------------------------------|
Ayer pensé decirte adiós, y me faltó el valor Es que había en tus ojos tanto amor

   F#m       Bm	      E	    A     D	               C#
e------------2---------------0------------2-0-0--4-1-4-2-4---2-4-|
B-----2-----2-2---3-2-3-----0-0---2-3-5---3-3-3--0-----0---0-----|
G----2-2---2---2--------2--1---1--2-4-6--2-2-2-2-----------------|
D---4---4-2-----------------------------0------------------------|
A---------------2----------------0---------------0---------------|
E-2-----------------------0--------------------------------------|
Que fácil es decir adiós, que fácil olvidar Que difícil será para los dos


	F#m		   C#
Quien te cantará con esta guitarra
	F#m			C#-E
Quien la hará sonar cuando no esté yo
	        A	     E	        D       E
Quien dará a tu casa color, y a tu lecho calor
			D-C#m-Bm7-E*-D-C#m-Bm7
Quien te hará el amor

e-----------------|
B-2H3P2-----------|
G-------(4)-2-1---|
D---------------4-|
A-----------------|
E-----------------|

   F#m       Bm	      E	    A     D	               C#
e------------2---------------0------------2-0-0--4-2-4-2-1-1-1H4-4-4--|
B-----2-----2-2---3-2-3-----0-0---2-3-5---3-3-3--0-------0-0-0---0-5--|
G----2-2---2---2--------2--1---1--2-4-6--2-2-2-2----------------------|
D---4---4-2-----------------------------0-----------------------------|
A---------------2----------------0---------------0--------------------|
E-2-----------------------0-------------------------------------------|
Quien tachará mi dirección de tu libreta azul archivando mi historia en un cajón

   F#m       Bm	      E	    A     D	         C#
e------------2---------------0------------2-0-0----2-4-2-|
B-----2-----2-2---3-2-3-----0-0---2-3-5---3-3-3---0------|
G----2-2---2---2--------2--1---1--2-4-6--2-2-2-2---------|
D---4---4-2-----------------------------0----------------|
A---------------2----------------0---------------0-------|
E-2-----------------------0------------------------------|
Y tu que harás a dónde irás, tal vez me olvidarás y pondrás mi guitarra en un rincón

	F#m		   C#
Quien te cantará con esta guitarra
	F#m			C#-E
Quien la hará sonar cuando no esté yo
	        A	     E	        D       E
Quien dará a tu casa color, y a tu lecho calor
			D-C#m-Bm7
Quien te hará el amor
	F#m		   C#
Quien te cantará con esta guitarra
	F#m			C#-E
Quien la hará sonar cuando no esté yo
	        A	     E	        D       E
Quien dará a tu casa color, y a tu lecho calor
			D-C#m-Bm7-E*-D-C#m-Bm7
Quien te hará el amor

                     e-----2-----2---------------1-2-4-2-1------2-|
                     B----------------3-2-3------2-2-2-2-2-----2--|
                     G----2-2---2-2---2-2-2-----4-------------2---|
                     D---4---4-4---4-4------4--4-------------4----|
                     A--------4-----2-------2-2-------------4-----|
           E*        E-2-----------------------------------2------|
Quien te hará el amor

E* xxx454
Tap to rate this tab
# A B C D E F G H I J K L M N O P Q R S T U V W X Y Z