Song name
# A B C D E F G H I J K L M N O P Q R S T U V W X Y Z

Nicho Hinojosa - Mariposa Tecnicolor tab

INTRO
1|-------------------------0-0-3-2-3-2-2h3-2------0-2-3-2-2h3-2-|e
2|-----3-----3-----3---------3-3-3-3-3-3---3------3-3-3-3-3---3-|b
3|---0-----0-----0-------0---2-2-2-2-2-2---2----0---2-2-2-2---2-|g
4|-------------------2s4----------------------------------------|D
5|--------------------------------------------------------------|A
6|-3-----2-----0------------------------------3-----------------|E

RIFF 1
1|---------------------------------------------------------2H3-2-|e
2|-----3---3-----3---3------3---3-----3-----3-----3-----3--3---3-|b
3|---0---0-----O---0------0---0-----0-----0-----0-----0----2---2-|g
4|--------------------------------0------------------------------|D
5|--------------------------------------3-----2-----0------------|A
6|-3---------2---------0-----------------------------------------|E
  
RIFF 2
1|-------3-----3-------3-----3-------3-----3-----------|e
2|-----3-----3-------3-----3-------3-----3-------------|b
3|---0-----0-------0-----0-------0-----0---------------|g
4|---------------0---------------------------0-0-------|D
5|-----------------------------0-----------------3-2-0-|A
6|-3---------------------------------------------------|E

RIFF 3
1|---------------------------------------3-----3-----3-------3-----3-----3-|e
2|-----3---3-----3---3-----3-----3-----3-----3-----3-------3-----3-----3---|b
3|---0---0-----0---0-----0-----0-----0-----0-----0-------0-----0-----0-----|g
4|---------------------------0-------------------------0-------------------|D
5|---------------------------------3---------------------------------------|A
6|-3---------2---------0---------------------------------------------------|E

RIFF 1
Todas las mañanas que viví, todas las calles donde me escondí

RIFF 2
El encantamiento de un amor, el sacrificio de mi madre los zapatos de charol

RIFF 1
Los domingos en el club, salvo que cristo siga ahí en la cruz

RIFF 2
Las columnas de la catedral y en la tribuna gritan gol el lunes por la capital

RIFF 1
Todos giran y giran, todos bajo el sol

RIFF 3
Se proyecta la vida, mariposa tecnocolor

RIFF 1
Cada vez que me miras, cada sensación

1|-----------------------------------3-----3-----3-------3-|e
2|-----3-------3-------3-----3-----3-----3-----3-------3---|b
3|---0-------0-------0-----0-----0-----0-----0-------0-----|g
4|-----------------------0-------------------------0-------|D
5|-----------------------------3---------------------------|A
6|-3-------2-------0---------------------------------------|E
  se proyecta la vida,        mariposa         t e c n o c o l 



1|---------------------------------3-3-3-2-2-2h3-2-|e
2|-----3-----3-----3-----3-----3---3-3-3-3-3-3---3-|b
3|---0-----0-----0-----0-----0-----2-2-2-2-2-2---2-|g
4|-------------------0-----------------------------|D
5|-------------------------3-----------------------|A
6|-3-----2-----0-----------------------------------|E
  oooooooooooooooor

RIFF 1
Vi sus caras de resignación, los vi felices llenos de dolor

RIFF 2
Ellas cocinaban el arroz, el levantaba sus principios de sutil emperador 

RIFF 1
Todo al fin se sucedió, solo que el tiempo no nos esperó

1|-------3-----3-----------3-----3------------------3-----3----------2-3-2-|e
2|-----3-----3-----------3-----3------------------3-----3------------3-3-3-|b
3|---0-----0-----------0-----0------------------0-----0--------------2-2-2-|g
4|-------------------0-----------------------------------------------------|D
5|--------------------------------------------0----------------------------|A
6|-3-----------------------------------------------------------------------|E
  La melancolía de morir en este mundo y de vivir sin una estúpida razón

RIFF 1
Todos giran y giran, todos bajo el sol

G               Em       C           D
Se proyecta la vida, mariposa tecnocolor

G                        C  
Cada vez que me miras, cada sensación 

              1|-------------------3-----3-------3-|e
              2|-----3-----3-----3-----3-------3---|b
              3|---0-----0-----0-----0-------0-----|g
              4|-------0-------------------0-------|D
              5|-------------2---------------------|A
 G            6|-0---------------------------------|E
Se proyecta la vida       mariposa     tecnocolor

1|------------------------------------|e
2|-----3-----3------------3-----------|b
3|---0-----0------------0-------------|g
4|-------0--------------------------0-|D
5|----------------------------0-2-0---|A
6|-3------------------3-----3---------|E
   Yo te conozco de antes

1|-------3-----3-------3-----3-|e
2|-----3-----3-------3-----3---|b
3|---0-----0-------0-----0-----|g
4|---------------0-------------|D
5|-----------------------------|A
6|-3---------------------------|E
  Desde antes del ayer

RIFF 1
Yo te conozco de antes, cuando me fui no me alejé
G               C
Llevo la luz cantante
G                C
Llevo la luz del tren
G                 Em
Llevo un destino errante
C                       D
Llevo tus marcas en mi piel
G                      D
Y hoy solo te vuelvo a ver
G                      D 
Y hoy solo te vuelvo a ver
G                      D
Y hoy solo te vuelvo a ver
 
                    1|-------3-------3-------3-------------------|e
                    2|-----3-------3-------3-------3-----3-----3-|b
                    3|---0-------0-------0-------0-----0-----0---|g
                    4|-------------------------------------------|D
                    5|-------------------------------------------|A
Mariposa tecnocolor 6|-3-------2-------3-------3-----2-----0-----|E   
Tap to rate this tab
 
# A B C D E F G H I J K L M N O P Q R S T U V W X Y Z