Song name
# A B C D E F G H I J K L M N O P Q R S T U V W X Y Z

Nicho Hinojosa - Llamame Si Me Necesitas tab

ACORDES
  G      D    Cmaj7  Fmaj7   Em2
e - 3  e - 2  e - 0  e - 0  e - 0
B - 3  B - 3  B - 0  B - 1  B - 0
G - 0  G - 2  G - 0  G - 2  G - 0
D - 0  D - 0  D - 2  D - 3  D - 4
A - 2  A - 0  A - 3  A - 3  A - 2
E - 3  E - X  E - 3  E - X  E - 0

INTRO

    Cmaj7    D				  Cma7     D
e --3--2-----3--3-----3--2-p-0-----0------3--2-----3--3-----3--2-p-0-----0--------0--------|
B --3-----3--3-----2--3---------2-----2---3-----3--3-----2--3---------2-----2--------2-----|
G -----------------------------------------------------------------------------0--------0--|
D -----------0--------2----------------------------0--------2------------2-----------------|
A --3-------------------------------------3------------------------------------------------|
E -----------------------------------------------------------------------------------------|

    Cmaj7    Em       Em2           D G
e --3--2-----0-------------------5--------|
B --3-----3--0--0-----0-------0-----------|
G -----------0-----0--0----0--------------|
D -----------2--------4--4----------------|
A --3-------------------------------------|
E --------------------0-------------2--3--|


G                      D Cmaj7
Si estas cansada y muy sola
G                   D Cmaj7
no tienes con quien hablar
G                        D Camj7
si te hace falta alguna ayuda,
D             Cmaj7
no lo pienses mas,
D             Cmaj7
te podré alcanzar
  Fmaj7   Cmaj7    D
esté-e-es, donde estés.


Cmaj7    D        Em2
Llámame, llámame, si me necesitas,
Cmaj7    D        Em2
llámame, llámame, si me necesitas,
Cmaj7     D             Em2
llámame-e-e-e-e, yo estaré.


    Cmaj7             Em2                  D  G
e --3--2-----3--2-----0--0--------0--------------|
B --3-----3--------3--0-----0--------0-----------|
G --------------------0--------0--------0--0--0--|
D --------------------4--------------------0--0--|
A --3-----------------2--------------------0--2--|
E --------------------0--------------------2--3--|


G                     D  Cmaj7
Si decidís cambiar el rumbo
G                  D  Cmaj7
estés equivocada o no-o-o
G                      D  Cmaj7
no importa la risa del mundo
D			 Camj7
tienes un amigo en quien confiar
D             Cmaj7
no lo pienses más
  Fmaj7   Cmaj7    D
esté-e-es, donde estés.


Cmaj7    D        Em2
Llámame, llámame, si me necesitas,
Cmaj7    D        Em2
llámame, llámame, si me necesitas,
Cmaj7      D               Em2
tú llámame-e-e-e-e, yo estaré,
Cmaj7    D        Em2
Llámame, llámame, si me necesitas, tú-ú-ú
Cmaj7    D        Em2
llámame, llámame, si me necesitas,
Cmaj7      D	    Cmaj7      D
tú llámame-e-e-e-e, tú llámame-e-e-e-e,
Cmaj7     D             Em2
llámame-e-e-e-e, yo estaré,
Cmaj7       D              Em2
tú llámame-e-e-e-e, yo estaré.

FINAL

    Cmaj7    D                    Em2
e --3--2-----3--2--3--2-----3--2--0--|
B --3-----3--3-----3-----3--------0--|
G --------------------------------0--|
D -----------0-----2--------------4--|
A --3-----------------------------2--|
E --------------------------------0--|
Tap to rate this tab
# A B C D E F G H I J K L M N O P Q R S T U V W X Y Z